Oops, an error
Loading. Please wait.

Stab Tab

version 1
version 1

Whole song

10,447 views 1 this week
4 commentsread comments
1 2 3 4 5
x 4
add to favorites
launch autoscroll
font size
0
reset
how to read this tab
guitar tuner
Autoscroll
slow
fast
+/-
esc
set tempo
stop
Help us to improve Ultimate-Guitar.com Take our survey!
×
Author
Difficulty
intermediate
Title Fight - Stab 
tabliaturistman: jjjddd
standard tuning

[Intro Chorus]
lead thing, kinda made up the second half although it sounds alright
e|------------9p7-----------------------------------------------|
B|--------9------9-9--9-9-7--7-7-7----------9-----------9-------|
G|----------9------9--9-9-9--9-9-9------9-----9-----------9-----|
D|--9h11----------------------------6/7---7-----7---7-------7---|
A|------------------------------------------------9---9---------|
E|--------------------------------------------------------------|

chords 
e|-------------------------|
B|-------------------------|            [chorus]
G|-------------4/6----4----|     Memorial Day came and went again 
D|---7-----4---4/6----4----| x4  And I feel the same
A|---7-----4---2/4----2----|     How much you've changed
E|---5-----2---------------|


[verse] faster rhythm
e|----------------------------------------------------------|
B|----------------------------------------------------------|
G|----------------------------6-6--6--6--6/9-9--9--4--4-----|
D|---7-7--7--7--7-4-4--4/-7-7-6-6--6--6--6/9-9--9--4--4-----|
A|---7-7--7--7--7-4-4--4/-7-7-4-4--4--4--4/7-7--7--2--2-----|
E|---5-5--5--5--5-2-2--2/-5-5-------------------------------|

e|------------------------------------------------------------|
B|------------------------------------------------------------|
G|--------------------------------------------------4-4--4----|
D|---7-7--7--7--7-4-4--4--4--4-7-7--7--7--7-2-2--2--4-4--4----|
A|---7-7--7--7--7-4-4--4--4--4-7-7--7--7--7-2-2--2--2-2--2----|    [verse]
E|---5-5--5--5--5-2-2--2--2--2-5-5--5--5--5-0-0--0------------|   And I've heard all about
                                                                  Where you've been
e|----------------------------------------------------------|     How you are now
B|----------------------------------------------------------|     But I'm still remembering
G|----------------------------6-6--6--6--6/9-9--9--4--4-----|     Last year's parade
D|---7-7--7--7--7-4-4--4/-7-7-6-6--6--6--6/9-9--9--4--4-----|     Crowded streets with me
A|---7-7--7--7--7-4-4--4/-7-7-4-4--4--4--4/7-7--7--2--2-----|     With a longing for
E|---5-5--5--5--5-2-2--2/-5-5-------------------------------|

e|---------------------------------------------------------|
B|---------------------------------------------------------|
G|---------------------------------------------------------|
D|---7-7--7--7--7-4-4--4--4--4-7-7--7--7--7--x-x-2-x-x-2---|
A|---7-7--7--7--7-4-4--4--4--4-7-7--7--7--7--x-x-2-x-x-2---|
E|---5-5--5--5--5-2-2--2--2--2-5-5--5--5--5--x-x-0-x-x-0---|

[Chorus]
lead thing, kinda made up the second half
e|-----------9p7-----------------------------------------------|
B|-------9------9-9--9-9-7--7-7-7----------9-----------9-------|
G|---------9------9--9-9-9--9-9-9------9-----9-----------9-----|
D|--9h11---------------------------6/7---7-----7---7-------7---|
A|-----------------------------------------------9---9---------|
E|-------------------------------------------------------------|

chords 
e|-------------------------|     [chorus]
B|-------------------------|     nothing more
G|-------------4/6----4----|     Memorial Day came and went again 
D|---7-----4---4/6----4----| x4  And I feel the same
A|---7-----4---2/4----2----|     How much you've changed
E|---5-----2---------------|


[verse] 
e|----------------------------------------------------------|
B|----------------------------------------------------------|
G|----------------------------6-6--6--6--6/9-9--9--4--4-----|
D|---7-7~~~~--------------7-7-6-6--6--6--6/9-9--9--4--4-----|
A|---7-7~~~~--------------7-7-4-4--4--4--4/7-7--7--2--2-----|
E|---5-5~~~~--------------5-5-------------------------------|

e|------------------------------------------------------------|
B|------------------------------------------------------------|
G|--------------------------------------------------4-4--4----|
D|---7-7--7--7--7-4-4--4--4--4-7-7--7--7--7-2-2--2--4-4--4----|
A|---7-7--7--7--7-4-4--4--4--4-7-7--7--7--7-2-2--2--2-2--2----|  [verse]
E|---5-5--5--5--5-2-2--2--2--2-5-5--5--5--5-0-0--0------------| And I'll let you take a stab at me
                                                                Maybe then you'll know what I mean
e|----------------------------------------------------------|   Last year's streets at 
B|----------------------------------------------------------|   summer's end left me with
G|----------------------------6-6--6--6--6/9-9--9--4--4-----|   a longing for
D|---7-7--7--7--7-4-4--4/-7-7-6-6--6--6--6/9-9--9--4--4-----|
A|---7-7--7--7--7-4-4--4/-7-7-4-4--4--4--4/7-7--7--2--2-----|
E|---5-5--5--5--5-2-2--2/-5-5-------------------------------|

e|----------------------------------------------------------|
B|----------------------------------------------------------|
G|----------------------------------------------------------|
D|---7-7--7--7--7-4-4--4--4--4-7-7--7--7--7--2-2--2-2-2-2---|
A|---7-7--7--7--7-4-4--4--4--4-7-7--7--7--7--2-2--2-2-2-2---|
E|---5-5--5--5--5-2-2--2--2--2-5-5--5--5--5--0-0--0-0-0-0---|

[ending]
lead part at 1:26
e|-----0h4p0-0---------|
B|---5---------2-------|
G|---------------1/4---|
D|---------------------|
A|---------------------|
E|---------------------|

[on second time the last chord is shorter and the faster chords start right after it]
e|--------------------------------------------------------|
B|--------------------------------------------------------|
G|--------------------------------------------------------|
D|--7~~~~~------------2~~~~----7~~~~~---------------------| x2 
A|--7~~~~~------------2~~~~----7~~~~~---------------------|
E|--5~~~~~------------0~~~~----5~~~~~---------------------|    [ending]
                                                             something more
                                                             I'll let you
[let last chord ring out on the last time]                   take a stab at me
e|--------------------------------------|                    I'll let you
B|--------------------------------------|                    take a stab at me
G|-------------6--6--6-6----------------|
D|--7--7--7-7--6--6--6-6---4-4--6-7~~---| x4
A|--7--7--7-7--4--4--4-4---4-4--6-7~~---|
E|--5--5--5-5--------------2-2--4-5~~---|

awesome song, awesome band
Suggest correction
comments
print report bad tab
4 comments total. Showing first comments. show 2 bad comments
-1 reply
franchescoliv1 10 Mar 06, 2016 11:15 AM

lyrics are wrong

I've heard all about where you've been
and how you are now, but I'm still remembering
how last year's parade's crowded streets left me
with a longing for nothing more.

Memorial Day came and went again
and I feel the same-
how much you've changed.

And I'll let you take a stab at me.
Maybe then you'll know what I mean.

Last year's streets at summer's end
left me with a longing for something more.

guest
You may want to rate the tab now too:
select rating
Wanna post a correction for this tab? Suggest correction