Oops, an error
Loading. Please wait.

Trace Me Onto You Tab

214 views 33 this week
no commentswrite comment
1 2 3 4 5
3 more votes to show rating
add to favorites
launch autoscroll
font size
0
reset
how to read this tab
guitar tuner
Autoscroll
slow
fast
+/-
esc
set tempo
stop
Help us to improve Ultimate-Guitar.com Take our survey!
×
This is all i got by ear. The intro is not 100% right, so please feel free to correct me!
You can easily figure out the strumming pattern by listening to the song.

Check out my cover if you like: https://youtu.be/4oh6XIHXbIE

Title Fight - Trace Me Onto You

[Intro]
e|----------------------------------------------------------| 
B|----------------------------------------------------------| 
G|----------------------------------------------------------| 
D|--5-5-5-5-5-5--10-10-10-10--9-9-9-9-9-9-9-9---------------| x4
A|--5-5-5-5-5-5--10-10-10-10--7-7-7-7-7-7-7-7---------------| 
E|--3-3-3-3-3-3--8--8--8--8---x-x-x-x-x-x-x-x---------------|


[Chorus]

„Trace me onto you...criminal...“
e|-------------------------------------------------------------| 
B|-------------------------------------------------------------| 
G|-------------------------------------------------------------| 
D|----10-10-10-10--5-5-5-5-5--10-10-10-10---2-2-2-2-2-2-2-2----| x4
A|----10-10-10-10--5-5-5-5-5--10-10-10-10---2-2-2-2-2-2-2-2----| 
E|----8--8--8--8---3-3-3-3-3--8--8--8--8----0-0-0-0-0-0-0-0----|


[Verse]

„Withdrew vividly...“
e|-----------------------------------------------|----|---------------------------|
B|-----------------------------------------------|----|---------------------------|
G|-6-6-6-6-6-6-6-6-------------------------------|----|-6-6-6-6-6-6-6-6-----------|
D|-7-7-7-7-7-7-7-7--10-10-10-10--2-2-2-2-2-2-2-2-|-x3-|-7-7-7-7-7-7-7-7-5-5-5-5-5-|
A|-7-7-7-7-7-7-7-7--10-10-10-10--2-2-2-2-2-2-2-2-|----|-7-7-7-7-7-7-7-7-5-5-5-5-5-|
E|-x-x-x-x-x-x-x-x--8--8--8--8---0-0-0-0-0-0-0-0-|----|-x-x-x-x-x-x-x-x-3-3-3-3-3-|


[Solo part]

e|------------------------------------------------| 
B|------------------------------------------------| 
G|------------------------------------------------| 
D|--5-5-5-5-5-5--10-10-10-10---9-9-9-9-9-9-9-----| x2
A|--5-5-5-5-5-5--10-10-10-10--7-7-7-7-7-7-7-7-----| 
E|--3-3-3-3-3-3--8--8--8--8---x-x-x-x-x-x-x-x-----|

e|--------------------------------|
B|--------------------------------|
G|------9/7-----------------------|
D|--/9------7/9~-----/9~-9b9~-----|
A|--------------------------------|
E|--------------------------------|


[Chorus]

„Trace me onto you...“
e|-------------------------------------------------------------| 
B|-------------------------------------------------------------| 
G|-------------------------------------------------------------| 
D|----10-10-10-10--5-5-5-5-5--10-10-10-10---2-2-2-2-2-2-2-2----| x4
A|----10-10-10-10--5-5-5-5-5--10-10-10-10---2-2-2-2-2-2-2-2----| 
E|----8--8--8--8---3-3-3-3-3--8--8--8--8----0-0-0-0-0-0-0-0----|


[Break]
e|----0------0------------0-------0------------0-------0------0-----0--------|  
B|--1—--1----0--0-------1---1-----0--0-------1---1-----0----0----1----1------|  
G|--2-----2--0----0-----2-----2---0----0-----2-----2---0--0------2------2----|  
D|--3--------2------2---3---------2------2---3---------2---------3-----------| 
A|--3-------------------3--------------------3-------------------3-----------|  
E|---------------------------------------------------------------------------|


[Verse]

„Too high-fidelity...“ 
e|-----------------------------------------------|----|---0------------|
B|-----------------------------------------------|----|---1---0--------|
G|-6-6-6-6-6-6-6-6-------------------------------|----|---2---0--------|
D|-7-7-7-7-7-7-7-7--10-10-10-10--2-2-2-2-2-2-2-2-|-x4-|---3---2--------|
A|-7-7-7-7-7-7-7-7--10-10-10-10--2-2-2-2-2-2-2-2-|----|---3------------|
E|-x-x-x-x-x-x-x-x--8--8--8--8---0-0-0-0-0-0-0-0-|----|---------------


[Hypernight reprise]

e|-2-2---------2-2-----------2------------------------|
B|-3--3---3-3--3--3--------3--3---3-3-----------------|
G|-4---4--4-4--4---4-------4---4--4-4---4-4-----------|
D|-0------2-2--0-----2-2-2-2------2-2---5-5--5-5------|
A|--------3-3--------3-3-3-3------3-3---5-5--7-7------|
E|----------------------------------------------------|

e|-2-2---------2-2-----------2------------------------------|
B|-3--3---3-3--3--3--------3--3---3-3-----------------------|
G|-4---4--4-4--4---4-------4---4--4-4---4-4-4-(4)(4)(4)-----|
D|-0------2-2--0-----2-2-2-2------2-2---2-2-2--x--x--x------| x4
A|--------3-3--------3-3-3-3------3-3---2-2-2--3--3--3------|
E|--------------------------------------0-0-0--0--0--0------|

e|-2-2---------2-2-----------2-----------------------------|
B|-3--3---3-3--3--3--------3--3---3-3----------------------|
G|-4---4--4-4--4---4-------4---4--4-4---4-4----------------|
D|-0------2-2--0-----2-2-2-2------2-2---5-5--5-5-----------|
A|--------3-3--------3-3-3-3------3-3---5-5--7-7-----------|
E|---------------------------------------------------------|

„Losing light...hypernight....“
e|-----------------------|----|----------------|
B|-----------------------|----|----------------|
G|----------2-2----------|----|---------2-2-2--|
D|--10-10---2-2---2-2----|----|--10-10--2-2-2--|
A|--10-10---0-0---2-2----|-x3-|--10-10--0-0-0--|
E|--8--8----------0-0----|----|--8--8----------|

e|-2-2---------2-2-----------2----------2-2--------------|
B|-3--3---3-3--3--3--------3--3---3-3---3--3-------------|
G|-4---4--4-4--4---4-------4---4--4-4---4---4------4-----|
D|-0------2-2--0-----2-2-2-2------2-2---0------2-2-2-~---|
A|--------3-3--------3-3-3-3------3-3----------3-3-3-----|
E|-------------------------------------------------------|


************************************

| x  Dead note
| b  Bend
| ~  Vibrato / let ring
| /  Slide

************************************
Suggest correction
Give kudos to tab author, rate the tab!
1 2 3 4 5
comments
print report bad tab
guest
You may want to rate the tab now too:
select rating
Wanna post a correction for this tab? Suggest correction