Oops, an error
Loading. Please wait.

Western Haikus Tab

version 1
version 1

Whole song

Interactive

9,314 views 12 this week
1 commentread comment
1 2 3 4 5
please rate
add to favorites
launch autoscroll
font size
0
reset
how to read this tab
guitar tuner
Autoscroll
slow
fast
+/-
esc
set tempo
stop
Help us to improve Ultimate-Guitar.com Take our survey!
×
Author
-----------------------------------------------------------------------------
                             WESTERN HAIKUS - Title Fight
-----------------------------------------------------------------------------

Tuning: Drop D

Key:
. = palm mute
/ = slide

Lead Guitar only.

Part A

e|------------------------|--repeat, then play this------------------------|
B|------------------------|--after each subsequent time--------------------|
G|-/9999-7777-0000-0-000--|--9999 7 9 7------------------------------------|
D|-/0000-0000-9999-7-555--|--0000-0-0-0------------------------------------|
A|------------------------|------------------------------------------------|
E|------------------------|------------------------------------------------|

Part B

e|-------------------------------------------------------------------------|
B|-------------------------------------------------------------------------|
G|-------------------------------------------------------------------------|
D|-55-5--77-7--7777--------------------------------------------------------|
A|-55-5--77-7--7777--------------------------------------------------------|
E|-55-5--77-7--7777--------------------------------------------------------|
   ..    ..

Part C (1:48-1:52ish)
Just play G5

D|-5-|
A|-5-|
E|-5-|

repeatedly.
Suggest correction
What's this?
You can suggest a correction to this tab. Community and Mods will review your correction and vote to approve or reject it.
comments
We did not receive enough feedback on this tab! Please rate:
print report bad tab
1 2 3 4 5
1 comment total.
+1 reply
r-bizzle182 659 wrote on March 8 2010, 07:54 pm

GAH! Tabber here, idk what i was doing, the chords are supposed to be


e|-----------|------------
B|-----------|------------
G|-9-7-0-0-0-|-9999-7-9-7-
D|-0-0-9-7-5-|-0000-0-0-0-
A|-----------|------------
E|-----------|------------

guest
You may want to rate the tab now too:
select rating
Please do not post tabs as comments. Select "correction" instead!