Oops, an error
Loading. Please wait.

Where Am I Tab

version 1
version 1

Acoustic

Whole song

4,028 views 18 this week
no commentswrite comment
1 2 3 4 5
please rate
add to favorites
launch autoscroll
font size
0
reset
how to read this tab
guitar tuner
Autoscroll
slow
fast
+/-
esc
set tempo
stop
Help us to improve Ultimate-Guitar.com Take our survey!
×
Author
Difficulty
intermediate
This is the version where Jamie places Safe In Your Skin/Where Am I in the stair well.
Listen to the song for the strum pattern if you need help.

Here is the YouTube link:http://www.youtube.com/watch?v=7XxYYyecU2c
(You'll have to skip forward for Where Am I)

Tabbed by:chitonyaface
E-mail:pencilazer@yahoo.com

Tuning:EADGBe

e|----------0----------------------------------------------------------------|
B|----------0----------------------------------------------------------------|
G|----------4----------------------------------------------------------------|
D|----------0-------------------4---------5---------4------------------------|
A|-2--------2---------0---------0---------0---------0------------------------|
E|-0--------0---------3---------3---------3---------3------------------------|
you do this 2x but the 2nd time insted of the 4,5,4 part you go

e|--0---------0---------0----------------------------------------------------|
B|--0---------0---------0----------------------------------------------------|
G|--0---------0---------0----------------------------------------------------|
D|--0---------0---------0----------------------------------------------------|
A|--7---------9---------5----------------------------------------------------|
E|--5---------7---------3----------------------------------------------------|
He plays that whole part 3x
and he plays the one below 2x

e|-0-------0-------0-------0-------0-------0-------0-------------------------|
B|-0-------0-------0-------0-------0-------0-------0-------------------------|
G|-0-------0-------9-------7-------4-------4-------4-------------------------|
D|-5-------9-------9-------7-------3-------4-------2-------------------------|
A|-5-------9-------7-------5-------3-------2-------0-------------------------|
E|-3-------7-----------------------------------------------------------------|

e|-------------------------0-----------0-----------0-------------------------|
B|-------------------------0-----------0-----------0-------------------------|
G|-------------------------0-----------0-----------5-------------------------|
D|-x5-------x9b------------5-----------9-----------5-------------------------|
A|-x5-------x9b------------5-----------9-----------3-------------------------|
E|-x3-------x7b------------3-----------7-------------------------------------|
He does this 4x but you only do that last chord the first time

*note the part below is A LOT easier if you watch the video. at least for me

e|-0---------0---------0-----------------------------------------------------|
B|-0---------0---------0-----------------------------------------------------|
G|-5---------5---------0-----------------------------------------------------|
D|-5---------5---------5-----------------------------------------------------|
A|-3---------0---------2-----------------------------------------------------|
E|---------------------3-----------------------------------------------------|
*I am not 100% on this part. he does some variations of the pull offs but this is the 
basic one. just try messing around with it to figure it out.*

e|------------------------------------------------------------------------------|
B|-------------------------3p-------0-------------------------------------------|
G|---------0-------0------------------------------------------------------------|
D|--------h2--------------------------------------------------------------------|
A|---------3--------------------------------------------------------------------|
E|---------3--------------------------------------------------------------------|

e|---------------------------------------------------------------------------|
B|---------------4\3-------0-------------------------------------------------|
G|-------0-------------------------------------------------------------------|
D|-0-------------------------------------------------------------------------|
A|-h2------------------------------------------------------------------------|
E|-0-------------------------------------------------------------------------|

I'm pretty sure he also goes

e|-----------------0---------------------------------------------------------|
B|-------------------------4\3-------0---------------------------------------|
G|---------0-----------------------------------------------------------------|
D|-0-------------------------------------------------------------------------|
A|-h2------------------------------------------------------------------------|
E|-0-------------------------------------------------------------------------|

Those are all of the parts just repeat as needed. hopefully this helps.

************************************

| /   slide up
| \   slide down
| h   hammer-on
| p   pull-off
| ~   vibrato
| +   harmonic
| x   Mute note
| b   Bend
| pb  Pre-bend
| br  Bend release
| pbr Pre-bend release
| brb Bend release bend

************************************
Suggest correction
What's this?
You can suggest a correction to this tab. Community and Mods will review your correction and vote to approve or reject it.
comments
We did not receive enough feedback on this tab! Please rate:
print report bad tab
1 2 3 4 5
guest
You may want to rate the tab now too:
select rating
Please do not post tabs as comments. Select "correction" instead!