Oops, an error
Loading. Please wait.

Where Am I tab

version 3
version 3

Whole song

583 views 6 this week
no commentswrite comment
1 2 3 4 5
3 more votes to show rating
add to favorites
×
Save as Personal and add changes to this tab that will be seen only by you. Learn more ›
×
You can save this tab as Personal to edit and correct it or add notes. All changes will be seen only by you. Learn more »
launch autoscroll
font size
0
reset
how to read this tab
guitar tuner
edit
Autoscroll
slow
fast
+/-
esc
set tempo
stop
Author
-------------------------------------------------------------------------------
                            WHERE AM I - Title Fight
-------------------------------------------------------------------------------
Tabbed by: merkinball15

This is Jamie's part, mostly tabbed by ear.

Tuning: Standard

Intro
e|---------------------------------------------------------------------------|
B|---------------------------------0--0------------0-0-0-0-0-0---------------|
G|-----4--4------------0-----------------0---------2-2-4-4-0-0---------------|
D|-----------5---------4br---0---------------------0-0-0-0-0-0---------------|
A|--3------------------------------------------------------------------------|
E|---------------3--3-----------0------------3--3----------------------------|

e|---------------------------------------------------------------------------|
B|---------------------------------0--0------------0-0-0-0-0-0---------------|
G|-----4--4------------0-----------------0---------2-2-4-4-0-0---------------|
D|-----------5---------4br---0---------------------0-0-0-0-0-0---------------|
A|--3------------------------------------------------------------------------|
E|---------------3--3-----------0------------3--3----------------------------|

e|---------------------------------------------------------------------------|
B|---------------------------------0--0------------0-0-0-0-0-0---------------|
G|-----4--4------------0-----------------0---------2-2-4-4-0-0---------------|
D|-----------5---------4br---0---------------------0-0-0-0-0-0---------------|
A|--3------------------------------------------------------------------------|
E|---------------3--3-----------0------------3--3----------------------------|

"Another floor..."
e|---------------------------------------------------------------------------|
B|---------------------------------------------------------------------------|
G|--4--4--4-4-4-9--9-9-9-9-9-9-7-4--4--4-4-4----------2-2-2-2----------------|
D|--5--5--5-5-5-9--9-9-9-7-7-7-7-5--5--5-5-5-2--2-2-2-2-2-2-2----------------|
A|--3--3--3-3-3-7--7-7-7-0-0-0-0-3--3--3-3-3-2--2-2-2-0-0-0-0----------------|
E|--3--3--3-3-3------------------3--3--3-3-3-0--0-0-0------------------------|

e|---------------------------------------------------------------------------|
B|---------------------------------------------------------------------------|
G|--4--4--4-4-4-9--9-9-9-9-9-9-7-4--4--4-4-4----------2-2-2-2----------------|
D|--5--5--5-5-5-9--9-9-9-7-7-7-7-5--5--5-5-5-2--2-2-2-2-2-2-2----------------|
A|--3--3--3-3-3-7--7-7-7-0-0-0-0-3--3--3-3-3-2--2-2-2-0-0-0-0----------------|
E|--3--3--3-3-3------------------3--3--3-3-3-0--0-0-0------------------------|


"Where am I..."
e|-------------------------------------------------0-------0-----------------|
B|---------------------------0---------------------0-------0-----------------|
G|-----------------------------------------------------7-----7---------------|
D|--5-5-5-5-5-9-9-9-9-9-9-9-9br--5-5-5-5-5-9-9-9-9---9-9-9---9---------------|
A|--5-5-5-5-5-9-7-7-7-7-7-7------5-5-5-5-5-9-7-7-7---7---7-------------------|
E|--3-3-3-3-3-7-0-0-0-0-0-0------3-3-3-3-3-7-0-0-0---------------------------|
P.M.***********************  P.M.***************

e|-------------------------------------------------0-------0-----------------|
B|---------------------------0---------------------0-------0-----------------|
G|-----------------------------------------------------7-----7---------------|
D|--5-5-5-5-5-9-9-9-9-9-9-9-9br--5-5-5-5-5-9-9-9-9---9-9-9---9---------------|
A|--5-5-5-5-5-9-7-7-7-7-7-7------5-5-5-5-5-9-7-7-7---7---7-------------------|
E|--3-3-3-3-3-7-0-0-0-0-0-0------3-3-3-3-3-7-0-0-0---------------------------|
P.M.***********************  P.M.***************

"This strange routine..."
e|--------------x---------------x-x------------------------------------------|
B|--------------x---------------x-x------------------------------------------|
G|--4--4--4-4-4-x-4--4-4--4-4-4-x-x-4--4--4-4-4-4----------2-2-2-2-----------|
D|--5--5--5-5-5-x-5--5-5--5-5-5-x-x-5--5--5-5-5-5-2--2-2-2-2-2-2-2-----------|
A|--3--3--3-3-3-x-3--3-3--3-3-3-x-x-3--3--3-3-3-3-2--2-2-2-0-0-0-0-----------|
E|--3--3--3-3-3-x-3--3-3--3-3-3-x-x-3--3--3-3-3-3-0--0-0-0-------------------|

e|--------------x---------------x-x------------------------------------------|
B|--------------x---------------x-x------------------------------------------|
G|--4--4--4-4-4-x-4--4-4--4-4-4-x-x-4--4--4-4-4-4----------2-2-2-2-----------|
D|--5--5--5-5-5-x-5--5-5--5-5-5-x-x-5--5--5-5-5-5-2--2-2-2-2-2-2-2-----------|
A|--3--3--3-3-3-x-3--3-3--3-3-3-x-x-3--3--3-3-3-3-2--2-2-2-0-0-0-0-----------|
E|--3--3--3-3-3-x-3--3-3--3-3-3-x-x-3--3--3-3-3-3-0--0-0-0-------------------|


"Maybe there's nothing..."
e|--------------------------------------0------------------------------------| 
B|--------3p0-------0---------3p0---------3----------------------------------| 
G|------0-----0-------0-----0-----0---------4--------------------------------| 
D|--4h5---------4h5-----4h5---------4h5-------5------------------------------|
A|---------------------------------------------------------------------------|
E|---------------------------------------------------------------------------|

e|--------------------------------------0--------x-x-x-x---------------------| 
B|--------3p0-------0---------3p0---------3------x-x-x-x---------------------| 
G|------0-----0-------0-----0-----0---------4----x-x-x-x---------------------| 
D|--4h5---------4h5-----4h5---------4h5-------5--x-x-x-x---------------------|
A|-----------------------------------------------x-x-x-x---------------------|
E|-----------------------------------------------x-x-x-x---------------------|

"As cars pass by..."
e|---------------------------------------------------------------------------|
B|---------------------------------------------------------------------------|
G|--4--4--4-4-4-9--9-9-9-9-9-9-7-4--4--4-4-4----------2-2-2-2----------------|
D|--5--5--5-5-5-9--9-9-9-7-7-7-7-5--5--5-5-5-2--2-2-2-2-2-2-2----------------|
A|--3--3--3-3-3-7--7-7-7-0-0-0-0-3--3--3-3-3-2--2-2-2-0-0-0-0----------------|
E|--3--3--3-3-3------------------3--3--3-3-3-0--0-0-0------------------------|

e|---------------------------------------------------------------------------|
B|---------------------------------------------------------------------------|
G|--4--4--4-4-4-9--9-9-9-9-9-9-7-4--4--4-4-4----------2-2-2-2----------------|
D|--5--5--5-5-5-9--9-9-9-7-7-7-7-5--5--5-5-5-2--2-2-2-2-2-2-2----------------|
A|--3--3--3-3-3-7--7-7-7-0-0-0-0-3--3--3-3-3-2--2-2-2-0-0-0-0----------------|
E|--3--3--3-3-3------------------3--3--3-3-3-0--0-0-0------------------------|

"Where am I..."
e|-------------------------------------------------0-------0-----------------|
B|---------------------------0---------------------0-------0-----------------|
G|-----------------------------------------------------7-----7---------------|
D|--5-5-5-5-5-9-9-9-9-9-9-9-9br--5-5-5-5-5-9-9-9-9---9-9-9---9---------------|
A|--5-5-5-5-5-9-7-7-7-7-7-7------5-5-5-5-5-9-7-7-7---7---7-------------------|
E|--3-3-3-3-3-7-0-0-0-0-0-0------3-3-3-3-3-7-0-0-0---------------------------|
P.M.***********************  P.M.***************

e|-------------------------------------------------0-------0-----------------|
B|---------------------------0---------------------0-------0-----------------|
G|-----------------------------------------------------7-----7---------------|
D|--5-5-5-5-5-9-9-9-9-9-9-9-9br--5-5-5-5-5-9-9-9-9---9-9-9---9---------------|
A|--5-5-5-5-5-9-7-7-7-7-7-7------5-5-5-5-5-9-7-7-7---7---7-------------------|
E|--3-3-3-3-3-7-0-0-0-0-0-0------3-3-3-3-3-7-0-0-0---------------------------|
P.M.***********************  P.M.***************

"This strange routine..."
e|--------------x---------------x-x------------------------------------------|
B|--------------x---------------x-x------------------------------------------|
G|--4--4--4-4-4-x-4--4-4--4-4-4-x-x-4--4--4-4-4-4----------2-2-2-2-----------|
D|--5--5--5-5-5-x-5--5-5--5-5-5-x-x-5--5--5-5-5-5-2--2-2-2-2-2-2-2-----------|
A|--3--3--3-3-3-x-3--3-3--3-3-3-x-x-3--3--3-3-3-3-2--2-2-2-0-0-0-0-----------|
E|--3--3--3-3-3-x-3--3-3--3-3-3-x-x-3--3--3-3-3-3-0--0-0-0-------------------|

e|--------------x---------------x-x------------------------------------------|
B|--------------x---------------x-x------------------------------------------|
G|--4--4--4-4-4-x-4--4-4--4-4-4-x-x-4--4--4-4-4-4----------2-2-2-2-----------|
D|--5--5--5-5-5-x-5--5-5--5-5-5-x-x-5--5--5-5-5-5-2--2-2-2-2-2-2-2-----------|
A|--3--3--3-3-3-x-3--3-3--3-3-3-x-x-3--3--3-3-3-3-2--2-2-2-0-0-0-0-----------|
E|--3--3--3-3-3-x-3--3-3--3-3-3-x-x-3--3--3-3-3-3-0--0-0-0-------------------|

"Maybe there's nothing..."
e|--------------------------------------0------------------------------------| 
B|--------3p0-------0---------3p0---------3----------------------------------| 
G|------0-----0-------0-----0-----0---------4--------------------------------| 
D|--4h5---------4h5-----4h5---------4h5-------5------------------------------|
A|---------------------------------------------------------------------------|
E|---------------------------------------------------------------------------|

e|--------------------------------------0------------------------------------| 
B|--------3p0-------0---------3p0---------3----------------------------------| 
G|------0-----0-------0-----0-----0---------4--------------------------------| 
D|--4h5---------4h5-----4h5---------4h5-------5------------------------------|
A|---------------------------------------------------------------------------|
E|---------------------------------------------------------------------------|

e|---------------------------------------------------------------------------| 
B|--------3p0-------0---------3p0-------0------------------------------------| 
G|------0-----0-------0-----0-----0-------0----------------------------------| 
D|--4h5---------4h5-----4h5---------4h5--------------------------------------|
A|---------------------------------------------------------------------------|
E|---------------------------------------------------------------------------|

e|---------------------------------------------------------------------------| 
B|--------3p0-------0---------3p0-------0------------------------------------| 
G|------0-----0-------0-----0-----0-------0----------------------------------| 
D|--4h5---------4h5-----4h5---------4h5--------------------------------------|
A|---------------------------------------------------------------------------|
E|---------------------------------------------------------------------------|

e|--------------------------------------0-------0----------------------------| 
B|--------3p0-------0---------3p0---------3-------3--------------------------| 
G|------0-----0-------0-----0-----0---------4-------4------------------------| 
D|--4h5---------4h5-----4h5---------4h5-------5-------5----------------------|
A|---------------------------------------------------------------------------|
E|---------------------------------------------------------------------------|

Outro
e|---------------------------------------------------------------------------|
B|---------------------------------0--0------------0-0-0-0-0-0---------------|
G|-----4--4------------0-----------------0---------2-2-4-4-0-0---------------|
D|-----------5---------4br---0---------------------0-0-0-0-0-0---------------|
A|--3------------------------------------------------------------------------|
E|---------------3--3-----------0------------3--3----------------------------|

e|---------------------------------------------------------------------------|
B|---------------------------------0--0------------0-0-0-0-0-0---------------|
G|-----4--4------------0-----------------0---------2-2-4-4-0-0---------------|
D|-----------5---------4br---0---------------------0-0-0-0-0-0---------------|
A|--3------------------------------------------------------------------------|
E|---------------3--3-----------0------------3--3----------------------------|

e|---------------------------------------------------------------------------|
B|---------------------------------0--0------------0-0-0-0-0-0---------------|
G|-----4--4------------0-----------------0---------2-2-4-4-0-0---------------|
D|-----------5---------4br---0---------------------0-0-0-0-0-0---------------|
A|--3------------------------------------------------------------------------|
E|---------------3--3-----------0------------3--3----------------------------|

e|--------------------------------------------------------------------------|
B|---------------------------------0--0------------0-0-0-0-0-0--0------------|
G|-----4--4------------0-----------------0---------2-2-4-4-0-0--0------------|
D|-----------5---------4br---0---------------------0-0-0-0-0-0--2------------|
A|--3-----------------------------------------------------------3------------|
E|---------------3--3-----------0------------3--3---------------3------------|

************************************

| /   slide up
| \   slide down
| h   hammer-on
| p   pull-off
| ~   vibrato
| +   harmonic
| x   Mute note
| b   Bend
| pb  Pre-bend
| br  Bend release
| pbr Pre-bend release
| brb Bend release bend

************************************

            
            
Suggest correction
Creating personal tab
Creating personal tab
You can edit any tab online and save it as your Personal.

You can edit, replace or remove any tab part or add personal notes – all changes will be seen only by you.

Personal tabs can be accessed anytime from any device, even offline.
Learn more »
Give kudos to tab author, rate the tab!
1 2 3 4 5
comments
print report bad tab
guest
You may want to rate the tab now too:
select rating
Wanna post a correction for this tab? Suggest correction