Oops, an error
Loading. Please wait.

Youreyeah Bass Tab

1,849 views 3 this week
no commentswrite comment
1 2 3 4 5
x 4
add to favorites
launch autoscroll
font size
0
reset
guitar tuner
Autoscroll
slow
fast
+/-
esc
set tempo
stop
Help us to improve Ultimate-Guitar.com Take our survey!
×
Author
Difficulty
intermediate
Title Fight
Youreyeah – Bass Tab

xxx = guitar only   / = slides 

[Verse Intro (Come in at 0:03)]

G|-----------------|--------------------------------------|
D|-----------------|--------------------------------------| X4
A|-xxx-xxx-xxx-xxx-|---------------------222222222222-----|
E|-----------------|-2/4-44\22-2/4-44\00------------------|

[Bass chords leading into intro]
G|-----------------------------|
D|-4---6-------4---6-------9---|
A|-2---4-------2---4-------7---|
E|---------0----------0----0---|

[Verse 1]
G|----------------------------|
D|----------------------------| X2
A|-222222222222--------777777-|
E|--------------444444--------|

G|-----------------------------------------------------------|
D|-----------------------------------------------------------|
A|-222-----444/666--------------222-----444/666/777777777777-|
E|-----222---------000000000000-----222----------------------|

G|----------------------------------|
D|----------------------------------|
A|-222222222222---------------------| X2
E|--------------2/4-44\22-2/4-44\00-|

[Verse 2]
G|-----------------------------|
D|-----------------------------|
A|-222222/666666---------------| X2
E|--------------444444/000000--|

G|-----------------------------------------------------------|
D|-----------------------------------------------------------|
A|-222-----444/666--------------222-----444/666/777777777777-|
E|-----222---------000000000000-----222----------------------|


[Bridge]
G|--------------------------------------------------|
D|--------------------------------------------------| x2
A|-222222222------------------------777777777-------|
E|----------00000000000-44444444444-----------------|

[Outro] Bass comes in at 1:39 
G|---------------------|---------------------|   |---------|
D|---------------------|---------------------|X6 |---------|
A|-xxx-----xxx-----676-|-222-----444----676--|   |-676-----|
E|-----xxx-----xxx-----|----222-----444------|   |-----2---|

Tabbed by Isaac, its my first tab ever so it may be a bit clunky.
feel free to use and share publicly but please give credit.
Thanks, TF destroys. (If you have any questions or songs you
would like me to tab, dont hesitate to message me at my 
email or my YouTube profile.)
Email: isaac_sayers@live.com.au    
YouTube Channel: IsaacQuiksilver
Suggest correction
comments
print report bad tab
guest
You may want to rate the tab now too:
select rating
Wanna post a correction for this tab? Suggest correction