Oops, an error
Loading. Please wait.

Te Comence A Querer Tab

62 views 1 this week
no commentswrite comment
1 2 3 4 5
3 more votes to show rating
add to favorites
launch autoscroll
font size
0
reset
how to read this tab
guitar tuner
×
Best way to learn
"Te Comence A Querer"
Autoscroll
slow
fast
+/-
esc
set tempo
stop
intro
e|--12-12-12-12-11-11-11-11-9-9-9-9-7-7-7-7---|X4
b|--------------------------------------------|
g|--------------------------------------------|
d|--------------------------------------------|
a|--------------------------------------------|
E|--------------------------------------------|

e|--4h5----44-4h5-5--44-4h5-5-----------------|
b|-----------------------------5-5/7----------|
g|--------------------------------------------|
d|--------------------------------------------|
a|--------------------------------------------|
E|--------------------------------------------|

e|--4h5----44-4h5-5--44-4h5-5--5-5/7-7--------|
b|--------------------------------------------|
g|--------------------------------------------|
d|--------------------------------------------|
a|--------------------------------------------|
E|--------------------------------------------|

E              B     A                   E
Te comencé a querer desde que te vi al primer dia
 A               E        F#m                      B
te adore tanto y tanto como jamas alguien te adoraria
 E             B    A                         E
Te comencé a querer sin saber si tu a mi me querias
 A                E        F#m                       B
me volvi como un loco como si fueras la unica que existiria

          A               E               A               E
Y aunque se que eres un niña que no podemos ser tres todavia
          A               E              F#m            B
y aunque se que me preguntaste muy adentro de ti no querias

e|--7-4-5-7---4-5-7-4-5-7---------------------|
b|--------------------------------------------|
g|--------------------------------------------|
d|--------------------------------------------|
a|--------------------------------------------|
e|--------------------------------------------|

no querias

e|--4------------------4-------4--------------|
b|----7-5-5-5-5-5--5-7---7-5-7----------------|
g|--------------------------------------------|
d|--------------------------------------------|
a|--------------------------------------------|
e|--------------------------------------------|

e|--4------------------4--4-------------------|
b|----7-5-5-5-5-5--5-7------7-5-7-5-----------|
g|--------------------------------------------|
d|--------------------------------------------|
a|--------------------------------------------|
e|--------------------------------------------|

 E             B    A                         E
Te comencé a querer sin saber si tu a mi me querias
 A             E        F#m                       B
me volvi como un loco como si fueras la unica que existiria [bis]

 E                     C#m                 G#m
Aunque tu forma de pensar es distinta a la mia
 F#m              E                B
no significa que yo te deje de pensar
 F#m          E          B
y hoy estoy orgulloso de ti
 F#m              A           B
porque se que has cambiado por mi  mientras

 E             B    A                         E
Te comencé a querer sin saber si tu a mi me querias
 A               E        F#m                       B
me volvi como un loco como si fueras la unica que existiria (bis)


e|--9-9-9-7-5-7-4-----------------------------|
b|----------------7-5-------------------------|
g|--------------------------------------------|
d|--------------------------------------------|
a|--------------------------------------------|
e|--------------------------------------------|

e|--9-9-9-9/12-9-7----------------------------|
b|-----------------9-7-5----------------------|
g|--------------------------------------------|
d|--------------------------------------------|
a|--------------------------------------------|
e|--------------------------------------------|

e|------4/5-4-4-4/5---------------------------|
b|--5-7-------------5-5/7---------------------|
g|--------------------------------------------|
d|--------------------------------------------|
a|--------------------------------------------|
e|--------------------------------------------|

e|------4/5-4-4-4/5-5/7-7---------------------|
b|--5-7---------------------------------------|
g|--------------------------------------------|
d|--------------------------------------------|
a|--------------------------------------------|
e|--------------------------------------------|


Cualquier duda escriban a mi mns
( san_mendez_199517@ )
Suggest correction
Give kudos to tab author, rate the tab!
1 2 3 4 5
comments
print report bad tab
guest
You may want to rate the tab now too:
select rating
Wanna post a correction for this tab? Suggest correction