Oops, an error
Loading. Please wait.

El Cigarrillo Tab

77 views 1 this week
no commentswrite comment
1 2 3 4 5
3 more votes to show rating
add to favorites
launch autoscroll
font size
0
reset
how to read this tab
guitar tuner
Autoscroll
slow
fast
+/-
esc
set tempo
stop
Help us to improve Ultimate-Guitar.com Take our survey!
×
**********************************************************************
NOTAS

--> Cejillo en el tercer traste es muy recomendable :).
--> La tab está completa. El dato es: los acordes se van repitiendo,
así que luego de aprenderse los 3 o 4 que la componen, están listos :).
--> Les dejo la letra abajo, así cuando se la aprendan, la cantan!
--> IMPORTANTE: este aporte es para que lo disfruten, y lo mejoren. Y así
 podamos gozar u poco más de este tremendo artista.
**********************************************************************


E||----------------------|----------------------|----------------------|
B||----------------------|--3---------3----4----|-------4----6---------|
G||-------5---------5----|----------------------|--3--------------5----|
D||--5---------5---------|-------5--------------|------------3---------|
A||-------3--------------|--5--------------6----|----------------------|
E||----------------------|----------------------|----------------------|


-------3---------3----|--4----3-4-3---------|-----------------|
--6---------4---------|----------------6----|--4----6----4----|
----------------------|---------------------|-----------------|
-------5--------------|--6------------------|-----------------|
----------------------|---------------------|--6--------------|
----------------------|---------------------|-----------------|


-----------------------|-|----------------------|----------------------|
-----------------------|-|----------------------|--3---------3----4----|
--7---------------7----|-|-------5---------5----|----------------------|
-------7----10----9----|-|--5---------5---------|-------5--------------|
--5--------------------|-|-------3--------------|--5--------------6----|
-----------------------|-|----------------------|----------------------|


----------------------|-------3---------3----|--4----3-4-3---------|
-------4----6---------|--6---------4---------|----------------6----|
--3--------------5----|----------------------|---------------------|
------------3---------|-------5--------------|--6------------------|
----------------------|----------------------|---------------------|
----------------------|----------------------|---------------------|


-----------------|-----------------------|-|--3----8----6----8----|
--4----6----4----|-----------------------|-|----------------------|
-----------------|--7--------------------|-|----------------------|
-----------------|-------7----9----10----|-|----------------------|
--6--------------|--5---------------3----|-|----------------------|
-----------------|-----------------------|-|-------8--------------|


--6----3----6----4----|--3-4-3-----------|----------------------|
----------------------|-------------6----|--4----6----4----3----|
----------------------|------------------|----------------------|
-----------------6----|------------------|----------------------|
--6-------------------|------------------|--6--------------5----|
----------------------|------------------|----------------------|


------------------|-|----------------------|----------------------|
------------------|-|----------------------|--3---------3----4----|
-------------7----|-|-------5---------5----|----------------------|
--7----10----9----|-|--5---------5---------|-------5--------------|
------------------|-|-------3--------------|--5--------------6----|
------------------|-|----------------------|----------------------|


----------------------|-------3---------3----|--4----3-4-3---------|
-------4----6---------|--6---------4---------|----------------6----|
--3--------------5----|----------------------|---------------------|
------------3---------|-------5--------------|--6------------------|
----------------------|----------------------|---------------------|
----------------------|----------------------|---------------------|


-----------------|-----------------------|-|--3----8----6----8----|
--4----6----4----|-----------------------|-|----------------------|
-----------------|--7--------------------|-|----------------------|
-----------------|-------7----9----10----|-|----------------------|
--6--------------|--5---------------3----|-|----------------------|
-----------------|-----------------------|-|-------8--------------|


--6----3----6----4----|--3-4-3-----------|----------------------|
----------------------|-------------6----|--4----6----4----3----|
----------------------|------------------|----------------------|
-----------------6----|------------------|----------------------|
--6-------------------|------------------|--6--------------5----|
----------------------|------------------|----------------------|


------------------|-|----------------------|----------------------|
------------------|-|----------------------|--3---------3----4----|
-------------7----|-|-------5---------5----|----------------------|
--7----10----9----|-|--5---------5---------|-------5--------------|
------------------|-|-------3--------------|--5--------------6----|
------------------|-|----------------------|----------------------|


----------------------|-------3---------3----|--4----3-4-3---------|
-------4----6---------|--6---------4---------|----------------6----|
--3--------------5----|----------------------|---------------------|
------------3---------|-------5--------------|--6------------------|
----------------------|----------------------|---------------------|
----------------------|----------------------|---------------------|


-----------------|-----------------------|-|--3----8----6----8----|
--4----6----4----|-----------------------|-|----------------------|
-----------------|--7--------------------|-|----------------------|
-----------------|-------7----9----10----|-|----------------------|
--6--------------|--5---------------3----|-|----------------------|
-----------------|-----------------------|-|-------8--------------|


--6----3----6----4----|--3-4-3-----------|----------------------|
----------------------|-------------6----|--4----6----4----3----|
----------------------|------------------|----------------------|
-----------------6----|------------------|----------------------|
--6-------------------|------------------|--6--------------5----|
----------------------|------------------|----------------------|


------------------|-|----------------------|----------------------|
------------------|-|----------------------|--3---------3----4----|
-------------7----|-|-------5---------5----|----------------------|
--7----10----9----|-|--5---------5---------|-------5--------------|
------------------|-|-------3--------------|--5--------------6----|
------------------|-|----------------------|----------------------|


----------------------|-------3---------3----|--4----3-4-3---------|
-------4----6---------|--6---------4---------|----------------6----|
--3--------------5----|----------------------|---------------------|
------------3---------|-------5--------------|--6------------------|
----------------------|----------------------|---------------------|
----------------------|----------------------|---------------------|


-----------------|-----------------------|-|----------------------|
--4----6----4----|-----------------------|-|----------------------|
-----------------|--7---------------7----|-|-------5---------5----|
-----------------|-------7----10----9----|-|--5---------5---------|
--6--------------|--5--------------------|-|-------3--------------|
-----------------|-----------------------|-|----------------------|


----------------------|----------------------|-------3---------3----|
--3---------3----4----|-------4----6---------|--6---------4---------|
----------------------|--3--------------5----|----------------------|
-------5--------------|------------3---------|-------5--------------|
--5--------------6----|----------------------|----------------------|
----------------------|----------------------|----------------------|


--4----3-4-3---------|-----------------|-----------------------|-|
----------------6----|--4----6----4----|-----------------------|-|
---------------------|-----------------|--7--------------------|-|
--6------------------|-----------------|-------7----9----10----|-|
---------------------|--6--------------|--5---------------3----|-|
---------------------|-----------------|-----------------------|-|


--3----8----6----8----|--6----3----6----4----|--3-4-3-----------|
----------------------|----------------------|-------------6----|
----------------------|----------------------|------------------|
----------------------|-----------------6----|------------------|
----------------------|--6-------------------|------------------|
-------8--------------|----------------------|------------------|


----------------------|------------------|-|----------------------|
--4----6----4----3----|------------------|-|----------------------|
----------------------|-------------7----|-|-------5---------5----|
----------------------|--7----10----9----|-|--5---------5---------|
--6--------------5----|------------------|-|-------3--------------|
----------------------|------------------|--|----------------------|


----------------------|----------------------|----------------|
--3---------3----4----|-------4----6---------|--6----4----4-6-|
----------------------|--3--------------5----|----------------|
-------5--------------|------------3---------|----------------|
--5--------------6----|----------------------|-------6--------|
----------------------|----------------------|----------------|


----------------------|--------||
--4----3--------------|--------||
----------------------|--------||
------------7----9----|--10----||
-------5--------------|---3----||
----------------------|--------||


LETRA

Anoche estuve conversando con mi cigarrillo,
me sentía cansado, cansado y aburrido,
mi mundo está tan triste, tan solo y tan vacío
que a veces me parece que ni siquiera existo.

Lo encendí despacito y le di una pitada,
luego viendo como el humo se volatilizaba
recordé tantas cosas que creía olvidadas
y se las conté todas mientras me lo fumaba.

Le conversé de ti y de mis añoranzas,
le conté de tus besos y de mis esperanzas,
le conté de tu olvido, le conté de mis lágrimas
y de aquello vivido que hoy se ha vuelto nada.

Le dije que es posible que a mí nadie me quiera
porque he pretendido vivir a mi manera,
porque me he negado, quizá, a pagar ese tributo,
de bajeza y pecado, que hoy nos exige el mundo.

A lo mejor estoy acabado, la vida me ha vencido,
he vivido, he luchado, he llorado y sufrido
y qué es lo que he ganado con ser tan comprensivo,
vivir desesperado en un mundo vacío.

Anoche con mi cigarrillo estuve conversando
y después de acabarlo me he quedado pensando
que en este verso triste, que es el mundo en que vivo,
es el único amigo que me va quedando.
Suggest correction
Give kudos to tab author, rate the tab!
1 2 3 4 5
comments
print report bad tab
guest
You may want to rate the tab now too:
select rating
Wanna post a correction for this tab? Suggest correction