Oops, an error
Loading. Please wait.

Fatal Flaw chords

283 views 3 this week
no commentswrite comment
1 2 3 4 5
1 last vote to show rating
add to favorites
×
Save as Personal and add changes to this tab that will be seen only by you. Learn more ›
×
You can save this tab as Personal to edit and correct it or add notes. All changes will be seen only by you. Learn more »
launch autoscroll
font size
0
reset
transpose
0
reset
display chords
guitar tuner
edit
Autoscroll
slow
fast
+/-
esc
set tempo
stop
Author
Difficulty
Strumming
There is no strumming pattern for this song yet. and get +5 IQ
Titus Andronicus 

Fatal Flaw 

If anyone knows how to play the solo feel free to post it and the comments and I'll add it to the tab 
and give you credit. Anyway, Enjoy. 

[Intro]
e|------------------------------|
B|------------------------------|
G|-----9-9--11-11-----9-9--6-6--| X4 
D|-7---------------7------------|
A|-----7-7--9-9-------7-7--4-4--|
E|-5---------------5------------|


[Verse} 
A                  D     A
She, She's looking after me
A       F#m   A              D        A                  F#m  
She doesn't know the kind of things I could do if I lose control
A           D       A
I'm letting out the beast
A            F#m     
He's free, unleashed
A               D        A            F#m
Will she freak when she sees my capabilities?


[Pre-Chorus1]
E                         D  A
Waiting at the drugstore, oh yeah
E                          D   A
Waiting on the drug dealer all day
E                             D   A
Waiting on some drug deal all the time
E                      D
Waiting on a drugstore line
D
I got what I came to find


[Chorus]
A           D     A       F#m
Let me show you my fatal flaw
A           D     A       F#m
Let me show you my fatal flaw
A           D     A       F#m
Let me show you my fatal flaw
A           D     A       F#m
Let me show you my fatal flaw
D
It's the best thing you never saw


e|----------------------------------------------------------------|
B|----------------------------------------------------------------|
G|-----9-9--11-11-----9-9--6-6-----9-9--11-11--14-14-11-11-9-9-6--|
D|-7---------------7------------7---------------------------------|
A|-----7-7--9-9-------7-7--4-4-----7-7--9-9----12-12-9--9--7-7-4--|
E|-5---------------5------------5---------------------------------|


[Verse 2]
A                D         A                  F#m              
Hey! I've always been this way, and I ain't proud
A                D         A                  F#m
But I might go insane if I can't say it out loud
A                D         A                     F#m
Don't want her feeling sad from what she heard me say
A              D        A       F#m
Not even on my worst of my birthdays


[Pre-Chorus2]
E                            D   A
Blame it on the drugs, yeah, oh yeah
E                             D     A
I'm paying off the drug dealer always
E                              D   A
Made it to the drug deal right on time
E                           D
Now I'm waiting on one more line
D
I got what I came to find


[Chorus]
A           D     A       F#m
Let me show you my fatal flaw
A           D     A       F#m
Let me show you my fatal flaw
A           D     A       F#m
Let me show you my fatal flaw
A           D     A       F#m
Let me show you my fatal flaw 

A           D     A       F#m
Let me show you my fatal flaw
A           D     A       F#m
Let me show you my fatal flaw
A           D     A       F#m
Let me show you my fatal flaw
A           D     A       F#m
Let me show you my fatal flaw
D
It's the best thing you never saw


e|----------------------------------------------------------------|
B|----------------------------------------------------------------|
G|-----9-9--11-11-----9-9--6-6-----9-9--11-11--14-14-11-11-9-9-6--|
D|-7---------------7------------7---------------------------------|
A|-----7-7--9-9-------7-7--4-4-----7-7--9-9----12-12-9--9--7-7-4--|
E|-5---------------5------------5---------------------------------|


[Outro]
D        F#m
Flaw
 A       D    F#m
My fatal flaw 
A       D    F#m
My fatal flaw 
A       D    F#m
My fatal flaw 
A       D    F#m
My fatal flaw 
A         D   
My fatal... 

            
            
Suggest correction
Creating personal tab
Creating personal tab
You can edit any tab online and save it as your Personal.

You can edit, replace or remove any tab part or add personal notes – all changes will be seen only by you.

Personal tabs can be accessed anytime from any device, even offline.
Learn more »
Give kudos to tab author, rate the tab!
1 2 3 4 5
comments
print report bad tab
guest
You may want to rate the tab now too:
select rating
Wanna post a correction for this tab? Suggest correction