Oops, an error
Loading. Please wait.

Abril Tab

by TK
20 views 1 this week
no commentswrite comment
1 2 3 4 5
3 more votes to show rating
add to favorites
launch autoscroll
font size
0
reset
how to read this tab
guitar tuner
×
Best way to learn
"Abril"
Autoscroll
slow
fast
+/-
esc
set tempo
stop
|----------------------------------------------------------------|
|----------------------------------------------------------------|
|----------------------------------------------------------------|
|-----------7--7-7------------7---7---9/7----------4--5--7--9----|    x 2          Punteo 1
|----7---9------9------7--9--------9-----------5-----------------|
|----------------------------------------------------7-----------|
|----------------------------------------------------------------|

|---------7---7-----7---7------7---7-------8---8----------|
|-----------8---8-----8---8------8---8-------8---8--------|
|------7-------------7-----------7-----------9------------|            Punteo 2
|---------------------------------------------------------|
|---------------------------------------------------------|
|---------------------------------------------------------|

|---------------------------|
|---------------------------|
|---------------------------|
|---7----9---10---9---7-----|   x 2                                                 Punteo 3
|---------------------------|
|---------------------------|

Intro: SOL, SIm, MIm, DO    Tocar punteo 1 y luego 1 y 2 a la vez.

                SOL                           SIm                         MIm                   DO
He caido en tu juego me he sentido yo un perro luego me he despertado y no estoy a tu lado
                     SOL                           SIm                   MIm                      DO
Luego de aquel momento me he mirado al espejo es tener hijo hermano el amor no esta de tu lado
  SOL                      SIm                             MIm                      DO
Trato de recordar el momento en que te vi solo veo sufrimiento mi corazon late muy lento   Punteo 1
 SOL                    SIm                MIm                  DO
mire alrededor y en tu ropa encontre me vesti muy lento este cuerpo que habia hecho
LAm
pronto recorde
DO                     RE                              MIm                      DO
cuando yo llegue me puse junto a ti pasando fue el tiempo tome mucho sonriendo
DO                     RE                              MIm                      DO
bailamos por demas tu te me acercabas mas aprovechaste ese momento y yo de tonto segui tu juego
LAm
tu me viste alli con ella           Punteo 3

Intro:

  SOL                   SIm                              MIm                      DO
corriste hacia mi lloraste y me dijiste ahi terminamos no me busques perro nuestro amor era eternoPun1
SOL                     SIm                              MIm                      DO
empece a llorar oye mi vida no te alejes mas tu me consolaste me abrasaste y me besaste
lAm
 nos fuimos de lugar
DO                      RE                              MIm                      DO
en tu coche yo me fui a mi casa te lleve conversamos sobre el lecho me consolaste con tus besos
DO                      RE                              MIm                      DO
luego todo siguio el amor no nos unio solo era un sentimiento tal vez poco duradero      Punteo 3
LAm
todo iba terminar.

Intro:

solo solo me quede me quede      Punteo 1 y 2 a la vez
solo solo me quede me quede.................
Suggest correction
Give kudos to tab author, rate the tab!
1 2 3 4 5
comments
print report bad tab
guest
You may want to rate the tab now too:
select rating
Wanna post a correction for this tab? Suggest correction