Oops, an error
Loading. Please wait.

Buscama Tab

by TK
14 views 1 this week
no commentswrite comment
1 2 3 4 5
3 more votes to show rating
add to favorites
×
Save as Personal and add changes to this tab that will be seen only by you. Learn more ›
×
You can save this tab as Personal to edit and correct it or add notes. All changes will be seen only by you. Learn more »
save as personal
new!
launch autoscroll
font size
0
reset
how to read this tab
guitar tuner
Autoscroll
slow
fast
+/-
esc
set tempo
stop
bueno les dejo otro punteo

---------------------------------------14-14-14-15-15-15-----
-----------12-12-12-14-14-14-15-15-15------------------------
-14-14-14----------------------------------------------------
-------------------------------------------------------------
-------------------------------------------------------------
-------------------------------------------------------------

-17-17-17-17-15-15-14-14-12-12--------------------------------
-------------------------------15-15-14-14-12-12-----------10-
------------------------------------------------11-12-11-12---
--------------------------------------------------------------
--------------------------------------------------------------
--------------------------------------------------------------
Suggest correction
Give kudos to tab author, rate the tab!
1 2 3 4 5
comments
print report bad tab
guest
Wanna post a correction for this tab? Suggest correction