Oops, an error
Loading. Please wait.

Buscando La Victoria Tab

by TK
8 views 1 this week
no commentswrite comment
1 2 3 4 5
3 more votes to show rating
add to favorites
launch autoscroll
font size
0
reset
how to read this tab
guitar tuner
Autoscroll
slow
fast
+/-
esc
set tempo
stop
Help us to improve Ultimate-Guitar.com Take our survey!
×
Cuando estés triste, cuando estés alegre, cuando te sientas sola, cuando 
derrames una lagrima, quisiera estar ahí contigo solo falta que tu quieras.
                                para Magally

x: 330230    y: 330220     y o MIm

Punteo 1:
e---------------10----------|---------------10------8--7-|------------
b----8--8----------8------8-|----8--8----------8---------|-----8--8---
g--7------7-----------7-----|--7------7----------7-------|--7-------7-

----7--------8----|---------------7--------8--|
--------8---------|----8--8----------8--------|
----------7-------|--7------7-----------7-----|

Punteo 2:
e---------------------------| |---------------|
b----7------8---10---8---7--|X|---7---10---8--|
g--7-----7----7----7---7----|3|-7---7----7----|

SOL  MIm
Punteo1
     SOL                  MIm               SOL                    MIm
buscaré la victoria en tu corazón lleno tocaras mi ausencia y lloraras en 
            SOL                        MIm                 SOL                  
cadencia olerás mis caricias cuando quieras dormir borraras el deseo 
         MIm               DO
mientras besas mi historia


Punteo1
     MIm      DO           SOL            RE        MIm      DO           
y querrás un amigo cuando amante te falte y querrás un amante cuando
SOL      RE            MIm       DO          SOL          RE          MIm
falte cariño y cuando quieras cariño ya mi amor se habrá ido y cuando yo
        DO            SOL      RE  MIm
ya no esté me encontrarás en recuerdos(y un rasgueo despacio hacia arriba)

  RE                  LA                 SIm                   SOL
Hablándole al sordo mostrándole al ciego así me presiento impotente deseo

Punteo2
    RE                       LA                SIm               SOL
saboreando en mis ojos observando en mi boca así yo te espero sutil inconsciencia

e------------------------|---------------------------|
b------------------------|---------------------------|
g------------------------|---------------------------|
d------------------------|---------------------------|
a----2-0-----------------|----2-0--------------------|
E----------3-------------|----------3----------------|

RE RE REsus RE

Punteo 1
      SOL                    MIm
y tan solo recuerda mientras traes a la vida 
    SOL                  MIm
los días sus noches intenciones confusas
      SOL                   MIm              DO
compartiendo las lluvias confianza extendida

      MIm       DO             SOL        RE         MIm       DO         
y buscaras la victoria cuando enciendas tu sueño si tu sueño te embarga 
     SOL        RE       MIm     DO    SOL       RE             MIm      
yo seré tu intención por yo aprendí a oler tus palabras por que yo
      DO      SOL       RE       MIm     DO         SOL        RE
aprendí a escuchar tu mirada por yo aprendí a conversar con tu piel por
    MIm      DO            SOL      RE           MIm       DO         SOL
que yo te cuidaba mientras tu te dormías por que yo te abrasaba cuando me
      RE MIm
lo insinuabas (y un rasgueo despacio hacia arriba)


Punteo 2
e------------------------|---------------------------|
b------------------------|---------------------------|
g------------------------|---------------------------|
d------------------------|---------------------------|
d------------------------|---------------------------|
a----2-0-----------------|----2-0--------------------|
E----------3-------------|----------3----------------|
RE RE REsus RE

    MIm       DO      SOL       RE        MIm       DO       SOL       
por yo te enseñé a vestir tus temores por yo te enseñé a dibujar tu
   RE         MIm    DO              SOL    RE           MIm    DO          
ternura y tus ojos mojaban cualquier alma desierta y tus ojos decían
       SOL        RE      MIm      DO          SOL       RE        MIm     
quiero confiar en ti y mi alma aceptaba mezclarse con la tuya y lo peor
   DO          SOL        RE       MIm        DO          SOL        
de todo es que tal vez te amo y si tal vez te amo ya no habrá mas
   RE MIm
victoria (y un rasgueo despacio hacia arriba)
Suggest correction
Give kudos to tab author, rate the tab!
1 2 3 4 5
comments
print report bad tab
guest
You may want to rate the tab now too:
select rating
Wanna post a correction for this tab? Suggest correction