Oops, an error
Loading. Please wait.

Como Perros Como Hermanos Tab

version 1
version 1

Whole song

by TK
1 view 1 this week
no commentswrite comment
1 2 3 4 5
3 more votes to show rating
add to favorites
launch autoscroll
font size
0
reset
how to read this tab
guitar tuner
×
Best way to learn
"Como Perros Como Hermanos"
Autoscroll
slow
fast
+/-
esc
set tempo
stop
Como perros, como hermanos.
Album:  Trece
Artista :TK
Hecho por Jorge Chino Funky bass Revilla Tenorio.

Comentarios a mi mail ok??? redchino@

INTRO:
Son solo las notas ya que el ritmo es diferente con 2 variantes pero son las 
notas tu solo dale el tiempo correcto.

e|-----------------------------------------------------------------------|
B|-----------------------------------------------------------------------|
G|-------------------------------------------------------------^---------|
D|-------------------5-5-2-5--2-5-2--7-7-5-7---5-7-5-----------5---------|
A|---7-7-5-7--5-7-5------------------------------------7-7-5-7-----------|
E|-----------------------------------------------------------------------|


FINAL:
D|-----------^-----|
A|-----7-7-5-7-----|
E|-----------------|

De ahi las notas son E G A E
pero  tocalas asi tambien con un buen rasgueo:

e|---------------------------|
B|------ -8--X---10-X--------|
G|--9--X--7--X---9--X---9-X--|
D|--9--X--5--X---7--X---9-X--|
A|--7--X----------------7-X--|
E|---------------------------|
    E     G      A      E


De ahi en la parte del 'huuuuuuuu Siento que empieza ya el recorrido....'
toca las mismas notas pero en su forma normal de Em G A Em
Suggest correction
Give kudos to tab author, rate the tab!
1 2 3 4 5
comments
print report bad tab
guest
You may want to rate the tab now too:
select rating
Wanna post a correction for this tab? Suggest correction