Oops, an error
Loading. Please wait.

Como Perros Como Hermanos Tab

version 2
version 2

Whole song

by TK
11 views 1 this week
no commentswrite comment
1 2 3 4 5
3 more votes to show rating
add to favorites
×
Save as Personal and add changes to this tab that will be seen only by you. Learn more ›
×
You can save this tab as Personal to edit and correct it or add notes. All changes will be seen only by you. Learn more »
save as personal
new!
launch autoscroll
font size
0
reset
how to read this tab
guitar tuner
Autoscroll
slow
fast
+/-
esc
set tempo
stop
Aca les dejo esta rola de esta otra banda del rock bicolor
la rola está brava y no es tan dificil si le das bien el 
ritmo;)está completa.

Nota; los acordes q tiene un numero al cosado, por ej.
                                                 E9>5
significa q se debe de tocar en es # de traste '>'

Intro:

 --------------------------------------------------------
 --------------------------------------------------------
 --------------------------------------------------------
 ----------------5-5---5.---5---7-7-5-7.-5-7-5---------5-
 -7-7-5-7.-5-7-5-----7----7---7----------------7-7-5-7---
 --------------------------------------------------------
 
 Como conocidos nos llevamos tiempo atrás cuando no hablamos
      E                                G 
 años antes como perros años hoy como hermanos 
       A                      E
 ayer ladramos hoy tal vez conversamos fuimos perros oh oh
 E                      G                      A
 fuimos vanos con el tiempo encima tuyo y el orgullo 
         E            E                         G
 debil concluyo, que el hermano es tu sangre 
                            A
 y tu sangre es tu vida
       E
 
 D - D - D13 - D - A - A - A13 - A

 Fuimos perros fuimos vanos, somos sangre somos hermanos
  A                       *E7       D               A
 Fuimos perros fuimos vanos, somos sangre somos hermanos
  A                       *E7       D               A  
 
 --------------------------------------------------------
 --------------------------------------------------------
 --------------------------------------------------------
 ----------------5-5---5.---5---7-7-5-7.-5-7-5---------5-
 -7-7-5-7.-5-7-5-----7----7---7----------------7-7-5-7---
 --------------------------------------------------------

 y esa vida es algo indispensable como la luz del viejo sol 
  E5                                       E9>5
 que acepta que somos sangre que somos hermanos
                      E9>7                E5
 nuestros padres son humanos y como tales pasarán
           E5                        E9>5
 queda mucho para el camino y ya es hora de tejer 
        E9>7                         E5
 nuestro destino. El apoyo debe surgir el amor para crecer
                       E5                   E9>5
 debe sufrir, debemos lograr juntos vivir pero tampoco
                E9>7
 convivir.
  E5
 
 D - D - D13 - D - A - A - A13 - A

 Fuimos perros fuimos vanos, somos sangre somos hermanos
  A                       *E7       D               A
 Fuimos perros fuimos vanos, somos sangre somos hermanos (x2)
  A                       *E7       D               A

 Punteo;)

 -7-5--------12-11-10--------------12---------------------
 -----8.-8-8--------------------12----12-10-12-10---------
 ------------------------9-12-9-------------------12-9-12-
 ---------------------12----------------------------------
 ---------------------------------------------------------
 ---------------------------------------------------------

 -10-7-------------------------
 ------10-8---------------10-8-
 -----------7-8-9-----7-9------
 -----------------7-9----------
 ------------------------------
 ------------------------------

 B>7 - C#>7 - F>5 - B>7

 Siento que empieza ya el recorrido conla buena compañia
  B>7                                      C#>7
 que nos hace entender del hermano un necesario sentimiento
          F>5                             G6
 y no tan solo un ilusorio o mediocre parentesco
                      G          A         E
 y pensar que todo vivió de la desinhibida conversacion
       E                        G         
 que nos regaló la rabia guardada en el silencio 
         A                                E
 de nuestra relación.

 Eso es todo, aca les dejo algunos acordesD13= (3) A13= (0) *E7= (4) E5= (x) E9= (x) C#= (1) G6= (3) 
      (3)      (3)      (5)     (x)     (5)     (2)     (5)  
      (2)      (2)      (4)     (3)     (4)     (1)     (4)
      (0)      (2)      (0)     (3)     (2)     (3)     (5)
      (0)      (0)      (x)     (1)     (x)     (4)     (0) 
      (x)      (0)      (x)     (x)     (x)     (1)     (0)

 cualquier cosa..a mi correo.
Suggest correction
Give kudos to tab author, rate the tab!
1 2 3 4 5
comments
print report bad tab
guest
Wanna post a correction for this tab? Suggest correction