Oops, an error
Loading. Please wait.

Ovni Tab

13 views 1 this week
no commentswrite comment
1 2 3 4 5
3 more votes to show rating
add to favorites
launch autoscroll
font size
0
reset
how to read this tab
guitar tuner
×
Best way to learn
"Ovni"
Autoscroll
slow
fast
+/-
esc
set tempo
stop
bueno este es el punteo

------------------------------------------
-2-2-2+0---2-2-2+0---------2+0---0+2-3-5--
--------2----------2-----2----2-----------
----------------------2-4-4---------------
------------------------------------------
------------------------------------------

-5-7-9--(9)-12--(9)-12--(9)-7--7-9-7------
------------------------------------------
------------------------------------------
------------------------------------------
------------------------------------------
------------------------------------------

------------------------------------------
-9-10--9-7-9-7------5--5-5-7-7-7--9-9-9-9-
--------------9--7-6----------------------
------------------------------------------
------------------------------------------
------------------------------------------
Suggest correction
Give kudos to tab author, rate the tab!
1 2 3 4 5
comments
print report bad tab
guest
You may want to rate the tab now too:
select rating
Wanna post a correction for this tab? Suggest correction