Oops, an error
Loading. Please wait.

Si Te Pido Chords

20 views 1 this week
no commentswrite comment
1 2 3 4 5
3 more votes to show rating
add to favorites
launch autoscroll
font size
0
reset
transpose
0
reset
simplify chords
display chords
guitar tuner
×
Best way to learn
"Si Te Pido"
Autoscroll
slow
fast
+/-
esc
set tempo
stop
Nota: Al principio de la letra, solo se toca una parte del intro la que esta
      entre ***   *** ...!!!


Intro:


***                                                  ***
e-2-----2-----2-*-2-----2-----2-*-2-----2-----2-*-2-----2-----2-]
B-----0-----0---*-----0-----0---*-----0-----0---*-----0-----0---]
G---3-----3-----*---3-----3-----*---3-----3-----*---3-----3-----]
D---------------*---------------*-1-------------*-2-------------]
A-2-------------*-4-------------*---------------*---------------]
E---------------*---------------*---------------*---------------]

e-2-----2-----2-*-2-----2-----2-*-0-----0-----0-*-0-----0-----0-]
B-----0-----0---*-----0-----0---*-----0-----0---*-----0-----0---]
G---3-----3-----*---3-----3-----*---3-----3-----*---3-----3-----]
D---------------*---------------*---------------*---------------]
A---------------*---------------*---------------*---------------]
E-4-------------*-2-------------*-0-------------*-0-------------]


***                                          ***                   G#m7
Si te pido que vivamos,es mi pecho ensangrentado a que lo grite ensimismado
 F#m7             B7                        E7
Es mi torrente sanguíneo el que corre más despacio
 G                    A                            D
Para ver si con su angustia te convences que a mi lado
D#m7              G#                        C#
Puedes ser como gaviota tan liviana y con blancura
C#m7                 F#                    B
Con diamantes en el pecho embarrados de ternura
 G                                         F#7
Y una mancha a un costado que se vuelve corazón...


***                                               ***                   G#m7
Si te pido que vivamos es porque,esta palma de mi mano es la que se ha cansado
F#m7           B7                    E7
De vivir de fantasías, ilusiones y estragos
 G                    A                      D
Convulsiones en mis piernas provocadas cada rato
 D#m7               G#                       C#
Pensamientos que perturban la razón de mi existencia
C#m7            F#                         B
Sentimientos imperfectos convertidos en violencia
 G                                         F#7
Si te pido que vivamos es porque me haces feliz...


Coro:
Bm              Bm/A         G
Si te pido que vivamos es porque,
                     F#7                           Bm
Ya no creo en los milagros y es  lo que me esta matando
 A                    D         F#7              Bm
Y tropiezo en tierra firme cuando no estas a mi lado
Bm/A             G               F#7
Si te pido que vivamos es para renacer...


Bm              Bm/A         G
Si te pido que vivamos es porque,
                F#7                           Bm
Ya no quiero imaginarte fríamente entre mis piernas
A                    D          F#7         Bm
Con los pies en la cabeza, en la cama con tristeza
Bm/A                  G                     F#7
Dando tumbos con la almohada sin desahogar mí fe.


Intro:
Si te pido que vivamos?. Si te pido que vivamos?.!!!
Suggest correction
Give kudos to tab author, rate the tab!
1 2 3 4 5
comments
print report bad tab
guest
You may want to rate the tab now too:
select rating
Wanna post a correction for this tab? Suggest correction