Oops, an error
Loading. Please wait.

No Scrubs intro tab

version 1
version 1

Intro

Whole song

by TLC
32,278 views 24 this week
1 commentread comment
1 2 3 4 5
x 9
add to favorites
×
Save as Personal and add changes to this tab that will be seen only by you. Learn more ›
×
You can save this tab as Personal to edit and correct it or add notes. All changes will be seen only by you. Learn more »
launch autoscroll
font size
0
reset
how to read this tab
guitar tuner
edit
Autoscroll
slow
fast
+/-
esc
set tempo
stop
Artist: TLC
Album: Fanmail
Song: No Scrubs
Tab: #3

Transcribed by Exo M7.

For questions/comments/tab requests, the email is jd0922@yahoo.com.

The other two tabs for this are just a little off. This is note-for-note on the song...

Tune all strings down 1/2 step.

D#|-------1---------0--------------------0--|
A#|-----3---------1----------3--------1-----|
F#|---2---------2-------------------2-------|
C#|-0----------------------2----------------|
G#|-----------0----------2--------0---------|
D#|--------------------0--------------------|

D#|-------1---------0-----------3-1-0---0---|
A#|-----3---------1----------3--------3-----|
F#|---2---------2---------------------------|
C#|-0----------------------2----------------|
G#|-----------0----------2--------0---------|
D#|--------------------0--------------------|

Rest of the song is nothing too challenging.

            
            
Suggest correction
Creating personal tab
Creating personal tab
You can edit any tab online and save it as your Personal.

You can edit, replace or remove any tab part or add personal notes – all changes will be seen only by you.

Personal tabs can be accessed anytime from any device, even offline.
Learn more »
comments
print report bad tab
1 comment total.
0 reply
GearBoxTy 10 Oct 28, 2013 04:21 PM

Any idea what the bridge breakdown chords are?

guest
You may want to rate the tab now too:
select rating
Wanna post a correction for this tab? Suggest correction