Oops, an error
Loading. Please wait.

El Pajaro Chogui Bass

67 views 1 this week
no commentswrite comment
1 2 3 4 5
3 more votes to show rating
add to favorites
launch autoscroll
font size
0
reset
guitar tuner
×
Best way to learn
"El Pajaro Chogui"
Autoscroll
slow
fast
+/-
esc
set tempo
stop
Ritmo: Polka Paraguaya

Acordes:
G, Em, C, D7, Am, D7, Am, D7, G, Em, G, G7,
C, G, D7, G, G7, C, G, D7, G

  G           Em            C           D7
G|--4-7---4-7|--0--4---0--4|----0-----0|----2---2-2
D|5-----5----|2------2-----|--2-----2--|0-4---0----
A|-----------|-------------|3-----3----|-----------
E|-----------|-------------|-----------|-----------

  Am          D7          Am    D7    
G|-----------|----2-----2|-----|----2
D|----2-----2|0-4---0-4--|----2|0-4--
A|0-3---0-3--|-----------|0-3--|-----
E|-----------|-----------|-----|-----

  G (2 veces) Em            G     G7
G|--4-7---4-7|--0--4---0--4|--4-7|-----
D|5-----5----|2------2-----|5----|5-7-9
A|-----------|-------------|-----|-----
E|-----------|-------------|-----|-----

  C               G
G|---9-14----9-14|----------------
D|10------10-----|---9-14----9-14-
A|---------------|10------10------
E|---------------|----------------

  D7          G     G7
G|-----------|--4-7|-----
D|--4-7---4-7|5----|5-7-9
A|5-----5----|-----|-----
E|-----------|-----|-----

  C               G                D7
G|---9-14----9-14|----------------|-----------
D|10------10-----|---9-14----9-14-|--4-7---4-7
A|---------------|10------10------|5-----5----
E|---------------|----------------|-----------


Se repite esa secuencia durante toda la canción,
después de este D7 inicia en G que está arriba,
al final después del D7 solamente se le añade esto:


     Cho-güí, Cho-güí
  G Cm       D7                  G D7 G
G|-|--------|-------------------|-|--|-|
D|5|--------|---------4-7--0-2-4|5|--|5|
A|-|--------|-------5-----------|-|5-|-|
E|-|-------3|-------------------|-|--|-|
Suggest correction
Give kudos to tab author, rate the tab!
1 2 3 4 5
comments
print report bad tab
guest
You may want to rate the tab now too:
select rating
Wanna post a correction for this tab? Suggest correction