Oops, an error
Loading. Please wait.

La Bruja Tab

136 views 3 this week
no commentswrite comment
1 2 3 4 5
3 more votes to show rating
add to favorites
launch autoscroll
font size
0
reset
how to read this tab
guitar tuner
×
Best way to learn
"La Bruja"
Autoscroll
slow
fast
+/-
esc
set tempo
stop
Ritmo: Vals
Intro:

e|-----------------1-1-0-0------0-------------0-0--------
B|--0-1-3--3-3-3-3---------1-1----1-1-1-1-1-1-----3-3-1-1
G|2------------------------------------------------------
D|-------------------------------------------------------
A|-------------------------------------------------------
E|-------------------------------------------------------


e|-------------------------------
B|0-0--0-0-0-0-3-3-1-1-0-0-------
G|-------------------------2-2--2
D|-------------------------------
A|-------------------------------
E|-------------------------------


e|-----------------1-1-0-0------0-------------0-0--------
B|--0-1-3--3-3-3-3---------1-1----1-1-1-1-1-1-----3-3-1-1
G|2------------------------------------------------------
D|-------------------------------------------------------
A|-------------------------------------------------------
E|-------------------------------------------------------


e|------------------------------
B|0-0--0-0-0-0-3-3-1-1-0-0------
G|-------------------------2-1-2
D|------------------------------
A|------------------------------
E|------------------------------


Am    G    F       E7
Ay! que bonito es volar,
                Am
a las 2 de la mañana,
      G     F    E7
a las 2 de la mañana,
                    Am
Ay! que bonito es volar, ay mamá!.

           F      E7
Volar y dejarse caer,
                     Am
en los brazos de una dama
           F         E7
ay! que bonito es volar,
                Am
a las 2 de la mañana, ay mamá!

(2)
    A7        Dm
Me agarra la bruja
              Am
me lleva a su casa,
            E7
me vuelve maceta
          Am 
y una calabaza.

A7            Dm
Me agarra la bruja
               Am
me lleva al cerrito,
            E7
me vuelve maceta
            Am
y una calabazito.

A7           Dm
Ay! dígame, dígame,
          Am
dígame usted,
               E7 
¿cuántas criaturitas
                Am
Se ha chupado usted?

A7           Dm
Ninguna, ninguna,
           Am
ninguna no sé,
                E7
ando en pretenciones
                 Am
de chuparme a usted.


e|-----------------1-1-0-0------0-------------0-0--------
B|--0-1-3--3-3-3-3---------1-1----1-1-1-1-1-1-----3-3-1-1
G|2------------------------------------------------------
D|-------------------------------------------------------
A|-------------------------------------------------------
E|-------------------------------------------------------


e|-------------------------------
B|0-0--0-0-0-0-3-3-1-1-0-0-------
G|-------------------------2-2--2
D|-------------------------------
A|-------------------------------
E|-------------------------------


e|-----------------1-1-0-0------0-------------0-0--------
B|--0-1-3--3-3-3-3---------1-1----1-1-1-1-1-1-----3-3-1-1
G|2------------------------------------------------------
D|-------------------------------------------------------
A|-------------------------------------------------------
E|-------------------------------------------------------


e|------------------------------
B|0-0--0-0-0-0-3-3-1-1-0-0------
G|-------------------------2-1-2
D|------------------------------
A|------------------------------
E|------------------------------


(1)
Ay! me espantó una mujer,
en el aire iba volando,
en el aire iba volando,
ay! me espantó una mujer Ay mamá!

Entonces le pregunté:
que ¿a quién andaba buscando?
me dijo ¿Quién es usted?
soy cantador de huapango ay mamá!

(2)
Escóndete Chepa,
escóndete Juana,
que ahí anda la bruja
debajo de la cama.

Escóndete Chepa
escóndete Joba,
que ahí anada la bruja
volando en su escoba.

Ay! dígame, dígame
dígame usted
¿Cuántas criaturitas
se ha chupado usted?
ninguna, ninguna
ninguna no sé,
ando en pretenciones
de chuparme a usted.


Canción típica del Estado de Veracruz, México.
Suggest correction
Give kudos to tab author, rate the tab!
1 2 3 4 5
comments
print report bad tab
guest
You may want to rate the tab now too:
select rating
Wanna post a correction for this tab? Suggest correction