Oops, an error
Loading. Please wait.

Nimbe Chords

10 views 1 this week
no commentswrite comment
1 2 3 4 5
3 more votes to show rating
add to favorites
launch autoscroll
font size
0
reset
transpose
0
reset
simplify chords
display chords
guitar tuner
×
Best way to learn
"Nimbe"
Autoscroll
slow
fast
+/-
esc
set tempo
stop
Intro

  Dm      A7    Dm         Gm             Dm
e|5--5--5|10--9|10--5----5|6--6--6--10--9|10--5-----5
B|6------|-----|-------6--|--------------|--------6--
G|7------|-----|-----7----|--------------|------7----
D|7------|-----|----------|--------------|-----------
A|-------|-----|----------|--------------|-----------
E|-------|-----|----------|--------------|-----------

  A7            Dm         A7             Dm
e|3--3--5--6--5|3--1--5--3|0--0--3--1---1|-----------
B|-------------|----------|-----------3--|3----------
G|-------------|----------|--------------|-----------
D|-------------|----------|--------------|-----------
A|-------------|----------|--------------|-----------
E|-------------|----------|--------------|-----------

  Dm      A7    Dm
Blanca como la luna
     Gm             Dm
se pierde por la vereda,
 A7          Dm
baja la totonaca
      A7                      Dm
a vender lo que al pueblo lleva.

C               F
En su rostro moreno
      C              F
hay huellas de raza mía,
 A7           Dm
canta totonaquita
 A7              Dm
Nimbe princesa mía.

     Bb  A7     Dm
Katleí,    Kumale,
      C          F
Dukustasha in kumale
    C        F   Bb    A7
pashana lasupí.

                 Dm
Y así va la totonaca
     A7              Dm
con rumbo a Cachiquiui.

  Dm      A7    Dm         Gm             Dm
e|5--5--5|10--9|10--5----5|6--6--6--10--9|10--5-----5
B|6------|-----|-------6--|--------------|--------6--
G|7------|-----|-----7----|--------------|------7----
D|7------|-----|----------|--------------|-----------
A|-------|-----|----------|--------------|-----------
E|-------|-----|----------|--------------|-----------

  A7            Dm         A7             Dm
e|3--3--5--6--5|3--1--5--3|0--0--3--1---1|-----------
B|-------------|----------|-----------3--|3----------
G|-------------|----------|--------------|-----------
D|-------------|----------|--------------|-----------
A|-------------|----------|--------------|-----------
E|-------------|----------|--------------|-----------

  Dm      A7    Dm
Blanca como la luna
     Gm             Dm
se pierde por la vereda,
 A7          Dm
baja la totonaca
      A7                      Dm
a vender lo que al pueblo lleva.

C               F
En su rostro moreno
      C              F
hay huellas de raza mía,
 A7           Dm
canta totonaquita
 A7              Dm
Nimbe princesa mía.

     Bb  A7     Dm
Katleí,    Kumale,
      C          F
Dukustasha in kumale
    C        F   Bb    A7
pashana lasupí.

                 Dm
Y así va la totonaca
     A7              Dm
con rumbo a Cachiquiui.

     Bb  A7     Dm
Katleí,    Kumale,
        Bb  A7       Dm
asta shaí,   Diós cali.

  Dm      A7    Dm         Gm             Dm
e|5--5--5|10--9|10--5----5|6--6--6--10--9|10--5-----5
B|6------|-----|-------6--|--------------|--------6--
G|7------|-----|-----7----|--------------|------7----
D|7------|-----|----------|--------------|-----------
A|-------|-----|----------|--------------|-----------
E|-------|-----|----------|--------------|-----------

  A7            Dm         A7             Dm
e|3--3--5--6--5|3--1--5--3|0--0--3--1---1|10---------
B|-------------|----------|-----------3--|-----------
G|-------------|----------|--------------|-----------
D|-------------|----------|--------------|-----------
A|-------------|----------|--------------|-----------
E|-------------|----------|--------------|-----------
Suggest correction
Give kudos to tab author, rate the tab!
1 2 3 4 5
comments
print report bad tab
guest
You may want to rate the tab now too:
select rating
Wanna post a correction for this tab? Suggest correction