Oops, an error
Loading. Please wait.

Because I Love You tab

by TNT
4 views 1 this week
no commentswrite comment
1 2 3 4 5
3 more votes to show rating
add to favorites
×
Save as Personal and add changes to this tab that will be seen only by you. Learn more ›
×
You can save this tab as Personal to edit and correct it or add notes. All changes will be seen only by you. Learn more »
launch autoscroll
font size
0
reset
how to read this tab
guitar tuner
edit
Autoscroll
slow
fast
+/-
esc
set tempo
stop
Artist : TNT
Song   : Because I Love You
Album  : Transistor
Tuning : A half a step lower

[Intro]
D#|-------------------------------------------------------|
A#|-------------------------------------------------------|
F#|-7-7-7-7-7-----7-7-7-7-7---------7-------7------7-7-7--|
C#|-7-7-7-7-7-----7-7-7-7-7-----x-x-9---x-x-9----x-9-9-9--|
G#|-------------------------------------------------------|
D#|-------------------------------------------------------|

D#|-------------------------------------------------------|
A#|-------------------------------------------------------|
F#|-7-7-7-7-7-----7-7-7-7-7---------7-------7------7-7-7--|
C#|-7-7-7-7-7-----7-7-7-7-7-----x-x-9---x-x-9----x-9-9-9--|
G#|-------------------------------------------------------|
D#|-------------------------------------------------------|

D#|-------------------------------------------------------|
A#|-------------------------------------------------------|
F#|-6-6-6-6-6-----9-9-9-9-9---------9-------9-----9-9-9\--|
C#|-7-7-7-7-7-------------------x-x-----x-x-----x---------|
G#|-7-7-7-7-7-----8-8-8-8-8---------9-------9-----9-9-9\--|
D#|-------------------------------------------------------|

D#|-------------------------------------------------------|
A#|-------------------------------------------------------|
F#|-6-6-6-6-6-----9-9-9-9-9---------9-------9-----9-9-9\--|
C#|-7-7-7-7-7-------------------x-x-----x-x-----x---------|
G#|-7-7-7-7-7-----8-8-8-8-8---------9-------9-----9-9-9\--|
D#|-------------------------------------------------------|

[Verse 1]
D#|---------------------------------------------------|
A#|-----------5/6--6-6--6------8---8------------------|
F#|-----------4/5--5-5--5------7---7-----7---7-7--7---|
C#|-5h7----------------------------------7---7-7--7---|
G#|-5h7---x-x--------------x-x-------x-x--------------|
D#|---------------------------------------------------|

D#|---------------------------------------------------|
A#|-----------5/6--6-6--6------8---8------------------|
F#|-----------4/5--5-5--5------7---7-----7---7-7--7---|
C#|-5h7----------------------------------7---7-7--7---|
G#|-5h7---x-x--------------x-x-------x-x--------------|
D#|---------------------------------------------------|

D#|------------------------------------------------------|
A#|-----------5/6--6-6--6------8---8---------------------|
F#|-----------4/5--5-5--5------7---7-----7---7-7--7-7-7--|
C#|-5h7----------------------------------7---7-7--7-7-7--|
G#|-5h7---x-x--------------x-x-------x-x-----------------|
D#|------------------------------------------------------|

D#|---------------------------------------------------|
A#|-----------5/6--6-6--6------8---8------------------|
F#|-----------4/5--5-5--5------7---7-----7---7-7--7---|
C#|-5h7----------------------------------7---7-7--7---|
G#|-5h7---x-x--------------x-x-------x-x--------------|
D#|---------------------------------------------------|

[Chorus 1]
(Guitar 1
)
D#|-----0-------3--------3-------3------0-------3--------3-------3---|
A#|-------1-----1--------1-------1--------1-----1--------1-------1---|
F#|------------------------------------------------------------------|
C#|------------------------------------------------------------------|
G#|------------------------------------------------------------------|
D#|------------------------------------------------------------------|
|
(Guitar 2
)
D#|------------------------------------------------------------------|
A#|------------------------------------------------------------------|
F#|------------------------------------------------------------------|
C#|------------------------------------------------------------------|
G#|-3-------2-------0------2--------3-------2-------0------2---------|
D#|------------------------------------------------------------------|
|
(Guitar 3
)
D#|------------------------------------------------------------------|
A#|------------------------------------------------------------------|
F#|-5--5--5--5...----------------------------------------------------|
C#|-5--5--5--5...----------------------------------------------------|
G#|-3--3--3--3...----------------------------------------------------|
D#|------------------------------------------------------------------|

(Guitar 1
)
D#|-----3-------3-------3--3-3--3-3----------------------------------|
A#|-----1-------1-------1--1-1--1-1------3-------3---3---3---3---3---|
F#|--------------------------------------2-------2---2---2---2---2---|
C#|------------------------------------------------------------------|
G#|------------------------------------------------------------------|
D#|------------------------------------------------------------------|
|
(Guitar 2
)
D#|------------------------------------------------------------------|
A#|------------------------------------------------------------------|
F#|------------------------------------------------------------------|
C#|------------------------------------------------------------------|
G#|-3-------2-------0------------------------------------------------|
D#|------------------------3---------2-2---2-2-2-----1---1---1---1---|
|
(Guitar 3)                     <-|
D#|------------------------------------------------------------------|
A#|------------------------------------------------------------------|
F#|-5--5--5--5...----------------------------------------------------|
C#|-5--5--5--5...----------------------------------------------------|
G#|-3--3--3--3...----------------------------------------------------|
D#|------------------------------------------------------------------|

D#|-------------------------------------------------------|
A#|-------------------------------------------------------|
F#|-6-6-6-6-6-----9-9-9-9-9---------9-------9-----9-9-9\--|
C#|-7-7-7-7-7-------------------x-x-----x-x-----x---------|
G#|-7-7-7-7-7-----8-8-8-8-8---------9-------9-----9-9-9\--|
D#|-------------------------------------------------------|

D#|-------------------------------------------------------|
A#|-------------------------------------------------------|
F#|-6-6-6-6-6-----9-9-9-9-9---------9-------9-----9-9-9\--|
C#|-7-7-7-7-7-------------------x-x-----x-x-----x---------|
G#|-7-7-7-7-7-----8-8-8-8-8---------9-------9-----9-9-9\--|
D#|-------------------------------------------------------|

[Verse 2]
D#|---------------------------------------------------|
A#|-----------5/6--6-6--6------8---8------------------|
F#|-----------4/5--5-5--5------7---7-----7---7-7--7---|
C#|-5h7----------------------------------7---7-7--7---|
G#|-5h7---x-x--------------x-x-------x-x--------------|
D#|---------------------------------------------------|

D#|-----------------------------------------------------------|
A#|-----------5/6--6-6--6------8---8--------------------------|
F#|-----------4/5--5-5--5------7---7-----7---7b1/--\p5-7p5----|
C#|-5h7----------------------------------7-----------------5--|
G#|-5h7---x-x--------------x-x-------x-x----------------------|
D#|-----------------------------------------------------------|

D#|---------------------------------------------------|
A#|---------5/6--6-6--6------8---8--------------------|
F#|---------4/5--5-5--5------7---7----7---7-7--7------|
C#|-7---7-----------------------------7---7-7--7------|
G#|-7---7----------------x-x---------------------x-x--|
D#|---------------------------------------------------|

D#|-------------------------------------------------|
A#|---------5/6--6-6--6------8---8------------------|
F#|---------4/5--5-5--5------7---7-----7---7-7--7---|
C#|-7---7------------------------------7---7-7--7---|
G#|-7---7----------------x-x-------x-x--------------|
D#|-------------------------------------------------|

[Chorus 2] (x2)
(Guitar 1
)
D#|----3-----3-----3-----3----------------------5--5--5--5--5--5--5--5--|
A#|----1-----1-----1-----1...-------------------3--3--3--3--3--3--3--3--|
F#|---------------------------------------------------------------------|
C#|---------------------------------------------------------------------|
G#|---------------------------------------------------------------------|
D#|---------------------------------------------------------------------|
|
(Guitar 2
)
D#|---------------------------------------------------------------------|
A#|-8--8--8--8--8--8--8--8----------------------------------------------|
F#|-7--7--7--7--7--7--7--7----------------------2-----2-----1-----1-----|
C#|-5--5--5--5--5--5--5--5...-------------------4-----4-----3-----3-----|
G#|---------------------------------------------------------------------|
D#|---------------------------------------------------------------------|

[Guitar Solo
]
D#|---------------------15-----------------15b1/~----15bh/~--15g~---|
A#|---10-9-8------------15b1/--\/\/~--------------------------------|
F#|-7---------------------------------------------------------------|
C#|----------8-8-8~-------------------------------------------------|
G#|-----------------------------------x\----------------------------|
D#|-----------------------------------------------------------------|

                               .  .  .     .  .
D#|-13bh/--13b1/~------18b1/---\-17-16-15-.--15-15-15~--|
A#|---------------------------------------18------------|
F#|-----------------------------------------------------|
C#|-----------------------------------------------------|
G#|-----------------------------------------------------|
D#|-----------------------------------------------------|

D#|-------------------------------------------------------------|
A#|-15-13-15-15b1.5/~--15-15-15b1.5/~---15-15-15b1.5/~---15g~---|
F#|-------------------------------------------------------------|
C#|-------------------------------------------------------------|
G#|-------------------------------------------------------------|
D#|-------------------------------------------------------------|

D#|----------------------------12--15--15b1/~----------|
A#|----------------13--15--15--------------------------|
F#|-14p13p12h13h14-------------------------------------|
C#|----------------------------------------------14~---|
G#|----------------------------------------------------|
D#|----------------------------------------------------|

D#|------------------------------------------|
A#|-17\13--17\13-13-12-13-13-13-15-b1/~--\---|
F#|------------------------------------------|
C#|------------------------------------------|
G#|------------------------------------------|
D#|------------------------------------------|

D#|---------12-17-12-15-14-12----12-15-14-12----12-15-14-12-15-b1/~---|
A#|-15b1/~--------------------15-------------15-----------------------|
F#|-------------------------------------------------------------------|
C#|-------------------------------------------------------------------|
G#|-------------------------------------------------------------------|
D#|-------------------------------------------------------------------|

[Backing guitar during solo
]
D#|-------------------------------------------------------|
A#|-------------------------------------------------------|
F#|-7-7-7-7-7-----7-7-7-7-7---------7-------7------7-7-7--|
C#|-7-7-7-7-7-----7-7-7-7-7-----x-x-9---x-x-9----x-9-9-9--|
G#|-------------------------------------------------------|
D#|-------------------------------------------------------|

D#|-------------------------------------------------------|
A#|-------------------------------------------------------|
F#|-7-7-7-7-7-----7-7-7-7-7---------7-------7------7-7-7--|
C#|-7-7-7-7-7-----7-7-7-7-7-----x-x-9---x-x-9----x-9-9-9--|
G#|-------------------------------------------------------|
D#|-------------------------------------------------------|

   (For the next two lines, notes on the 5th and the 6th strings are
    played on another guitar.)
D#|------------------------------------------|
A#|-----3-3-3-3-3---3-3-3-3-3---3-3-----3~---|
F#|-----2-2-2-2-2---2-2-2-2-2---2-2-----2~---|
C#|------------------------------------------|
G#|-------------0-----------1----------------|
D#|-3----------------------------------------|

D#|------------------------------------------|
A#|-----3-3-3-3-3---3-3-3-3-3---3-3-----3~---|
F#|-----2-2-2-2-2---2-2-2-2-2---2-2-----2~---|
C#|------------------------------------------|
G#|-------------0-----------1----------------|
D#|-3----------------------------------------|

D#|-------------------------------------------------------|
A#|-------------------------------------------------------|
F#|-6-6-6-6-6-----9-9-9-9-9---------9-------9-----9-9-9\--|
C#|-7-7-7-7-7-------------------x-x-----x-x-----x---------|
G#|-7-7-7-7-7-----8-8-8-8-8---------9-------9-----9-9-9\--|
D#|-------------------------------------------------------|

D#|-------------------------------------------------------|
A#|-------------------------------------------------------|
F#|-6-6-6-6-6-----9-9-9-9-9---------9-------9-----9-9-9\--|
C#|-7-7-7-7-7-------------------x-x-----x-x-----x---------|
G#|-7-7-7-7-7-----8-8-8-8-8---------9-------9-----9-9-9\--|
D#|-------------------------------------------------------|

[Interlude
]
    |-> With volume pedal (?)
D#|-----10-------10-10-----10-----10-10-----|
A#|-8-8----8-8-8-------8-8----8-8-------8---|
F#|-----------------------------------------|
C#|-----------------------------------------|
G#|-----------------------------------------|
D#|-----------------------------------------|
|
D#|-----------------------------------------|
A#|-----------------------------------------|
F#|-----------------------------------------|
C#|-7-7-7-7-9-9-9-9-10-10-10-10-10-10-10-10-|
G#|-----------------------------------------|
D#|-----------------------------------------|

D#|-----10-------10-10-10-10-10-10-10-10-10-10-|
A#|-8-8----8-8-8-------------------------------|
F#|--------------------------------------------|
C#|--------------------------------------------|
G#|--------------------------------------------|
D#|--------------------------------------------|
|
D#|-----------------------------------------|
A#|-----------------------------------------|
F#|-----------------------------------------|
C#|-7-7-7-7-9-9-9-9-10-10-10-10-10-10-10-10-|
G#|-----------------------------------------|
D#|-----------------------------------------|

D#|-----8-8-----8-------8-------8-8------10------10-------------|
A#|-8-8-----8-8---8-8-8---8-8-8-----8-10----10-8----10-8--------|
F#|-------------------------------------------------------------|
C#|-------------------------------------------------------------|
G#|-------------------------------------------------------------|
D#|-------------------------------------------------------------|
|
D#|-------------------------------------------------------------|
A#|-------------------------------------------------------------|
F#|-------------------------------------------------------------|
C#|-10-10-10-10-9-9-9-9-7-7-7-7-5-5-5-5-4-4-4-4-4-4-4-4-3-3-3-3-|
G#|-------------------------------------------------------------|
D#|-------------------------------------------------------------|

[Last Chorus
]
   (I'm very uncertain about the rest of the song.  I just can't quite
    distinguish the notes!)
D#|----3-----3-----3-----3-------------------------------|
A#|----1-----1-----1-----1...----------------------------|
F#|------------------------------------------------------|
C#|------------------------------------------------------|
G#|------------------------------------------------------|
D#|------------------------------------------------------|
|
D#|------------------------------------------------------|
A#|------------------------------------------------------|
F#|------------------------------------------------------|
C#|------------------------------------------------------|
G#|-3-----2-----0-----2--------3-----2-----0------2------|
D#|------------------------------------------------------|

D#|----3-----3-----3-----3------------------------------3~---|
A#|----1-----1-----1-----1...----3--3--3----3--3--3-----3~---|
F#|------------------------------2--2--2----2--2--2----------|
C#|----------------------------------------------------------|
G#|----------------------------------------------------------|
D#|----------------------------------------------------------|
|
D#|----------------------------------------------------------|
A#|----------------------------------------------------------|
F#|----------------------------------------------------------|
C#|----------------------------------------------------------|
G#|-3-----2-----0--------------------------------------------|
D#|-------------------3--------2----------1----------0-------|

D#|----3-----3-----3-----3-------------------------------|
A#|----1-----1-----1-----1...----------------------------|
F#|------------------------------------------------------|
C#|------------------------------------------------------|
G#|------------------------------------------------------|
D#|------------------------------------------------------|
|
D#|------------------------------------------------------|
A#|------------------------------------------------------|
F#|------------------------------------------------------|
C#|------------------------------------------------------|
G#|-0-----2-----3--------------0-----2-----3-------------|
D#|------------------------------------------------------|

D#|----3-3----3-3----3-3----3-3-----------------------------|
A#|----1-1----1-1----1-1----1-1...----3----3------3----3----|
F#|-----------------------------------2----2------2----2----|
C#|---------------------------------------------------------|
G#|---------------------------------------------------------|
D#|---------------------------------------------------------|
|
D#|---------------------------------------------------------|
A#|---------------------------------------------------------|
F#|---------------------------------------------------------|
C#|---------------------------------------------------------|
G#|-3------2------0-----------------------------------------|
D#|----------------------3--------2-------------------------|   and so on...

   Guitar at CD time : 3'48"
D#|--5---5----3h5p3-------15\----8/10~----8-7~----------------/8-7~---|
A#|--3---3------------15--15\---------------------10-8----------------|
F#|-------------------14-------------------------------10-9~----------|
C#|-------------------------------------------------------------------|
G#|-------------------------------------------------------------------|
D#|-------------------------------------------------------------------|

D#|-------15--15--15--15--15--15---------------------------------------------|
A#|-15~---15--15--15--15--15--15....-----12bh/\~--12bh/\~--12----------------|
F#|-14~--------------------------------------------------------12~-----------|
C#|-----------------------------------------------------------------14--14~--|
G#|--------------------------------------------------------------------------|
D#|--------------------------------------------------------------------------|

D#|---------------------------------------------------------------------------|
A#|-12bh/\~--12bh/\~-------------13-12~---13-12~---12bh/\~--------------------|
F#|--------------------14--12~------------------------------14--12~-----------|
C#|------------------------------------------------------------------14--14~--|
G#|---------------------------------------------------------------------------|
D#|---------------------------------------------------------------------------|

D#|-------------------------|
A#|-13-12~---12bh/\~--------|
F#|-------------------------|
C#|-------------------------|
G#|-------------------------|
D#|-------------------------|


************************************

| x  Dead note
| \  Slide down
| /  Slide up
| h  Hammer-on
| p  Pull-off
| b  Bend
| ~  Vibrato
| .  Staccato

************************************

            
            
Suggest correction
Creating personal tab
Creating personal tab
You can edit any tab online and save it as your Personal.

You can edit, replace or remove any tab part or add personal notes – all changes will be seen only by you.

Personal tabs can be accessed anytime from any device, even offline.
Learn more »
Give kudos to tab author, rate the tab!
1 2 3 4 5
comments
print report bad tab
guest
You may want to rate the tab now too:
select rating
Wanna post a correction for this tab? Suggest correction