Oops, an error
Loading. Please wait.

Desperate Night tab

by TNT
122 views 1 this week
no commentswrite comment
1 2 3 4 5
3 more votes to show rating
add to favorites
×
Save as Personal and add changes to this tab that will be seen only by you. Learn more ›
×
You can save this tab as Personal to edit and correct it or add notes. All changes will be seen only by you. Learn more »
launch autoscroll
font size
0
reset
how to read this tab
guitar tuner
edit
Autoscroll
slow
fast
+/-
esc
set tempo
stop
"Desperate Night" by TNT
Artist : TNT
Song   : Desperate Night
Album  : Tell No Tales
Tuning : E♭    


[Intro] 

   (Palm mute on the 5th string)
Eb|-----------------------------------------------------------------|
Bb|-----------------------------------------------------------------|
Gb|-2---0-2-5-5---4-------0-----0-2-2---0-2-5-5---4-------0-----0-2-|
Db|-2---0-2-5-5---4-------0-----0-2-2---0-2-5-5---4-------0-----0-2-|
Ab|-------------0---0-0-0---0-0-----------------0---0-0-0---0-0-----|
Eb|-----------------------------------------------------------------|


  (Palm mute on the 6th string)
Eb|---------------------------------------------------|
Bb|---------------------------------------------------|
Gb|---------9-9---7---------------------PH--PH--------|
Db|---------7-7---5---------------------5~--5~--------|
Ab|-----5-7---------------5-----5-7---------w/ delay--|
Eb|-0-----------0---0-0-0---0-0-----0-----------------|

Eb|-----------------------------------------------------------------|
Bb|-----------------------------------------------------------------|
Gb|-2---0-2-5-5---4-------0-----0-2-2---0-2-5-5---4-------0-----0-2-|
Db|-2---0-2-5-5---4-------0-----0-2-2---0-2-5-5---4-------0-----0-2-|
Ab|-------------0---0-0-0---0-0-----------------0---0-0-0---0-0-----|
Eb|-----------------------------------------------------------------|

Eb|--------------------------------------------------------------------------|
Bb|-----------------------------------------------------------------------6--|
Gb|---------9-9---7-------------------------9-9-------------------------7----|
Db|---------7-7---5-------------------------7-7-------------------PH----Clean|
Ab|-----5-7---------------5-----5-7-----5-7---------0-0-----3-----5~----tone-|
Eb|-0-----------0---0-0-0---0-0-----0-----------0-0------3-------------------|

Eb|----------------------|
Bb|----------------------|
Gb|-5--5--------7--7--5--|
Db|-5--5--5--5--7--7--5--|
Ab|-3--3--5--5--5--5--3--|
Eb|-------3--3-----------|


[Verse 1]

Eb|-----------------------------------------------------------------|
Bb|-----------------------------------------------------------------|
Gb|-2---0-2-5-5---4-------0-----0-2-2---0-2-5-5---4-------0-----0-2-|
Db|-2---0-2-5-5---4-------0-----0-2-2---0-2-5-5---4-------0-----0-2-|
Ab|-------------0---0-0-0---0-0-----------------0---0-0-0---0-0-----|
Eb|-----------------------------------------------------------------|

Eb|-----------------------------------------------------------------|
Bb|-----------------------------------------------------------------|
Gb|---------9-9---7-------------------------9-9---7---------9-9-9\--|
Db|---------7-7---5-------------------------7-7---5---------9-9-9\--|
Ab|-----5-7---------------5-----5-7-----5-7-----------------7-7-7\--|
Eb|-0-----------0---0-0-0---0-0-----0-----------0---0-0-0-0---------|

Eb|-----------------------------------------------------------------|
Bb|-----------------------------------------------------------------|
Gb|-2---0-2-5-5---4-------0-----0-2-2---0-2-5-5---4-------0-----0-2-|
Db|-2---0-2-5-5---4-------0-----0-2-2---0-2-5-5---4-------0-----0-2-|
Ab|-------------0---0-0-0---0-0-----------------0---0-0-0---0-0-----|
Eb|-----------------------------------------------------------------|

Eb|-------------------------------------------------------------|
Bb|---------------------------------------------------------8~--|
Gb|---------9-9---7-------------------------9-9---7---------7~--|
Db|---------7-7---5-------------------------7-7---5---------5~--|
Ab|-----5-7---------------5-----5-7-----5-7---------------------|
Eb|-0-----------0---0-0-0---0-0-----0-----------0---0-0-0-0-----|


[Pre-Chorus]

Eb|-------------------------------------------------------------------------|
Bb|-------------------8-8-8-8--------------5-----4----4-4-4-4---------------|
Gb|-------------------7-7-7-7--------------4-----4----4-4-4-4----------2-2--|
Db|-------------3-----5-5-5-5-------------------------|>wah  ----------2-2--|
Ab|-5-----0-----3--------------5-----0----------------pedal<|----------0-0--|
Eb|----2--------1-----------------2------------------------------0-3-0------|


[Chorus]

Eb|------------------------------------------------------------------|
Bb|------------------8-----------------------------------------------|
Gb|------------------7----7---------2----5--5--------------------2-2-|
Db|-----2------------5----7---------2----5--5--5--5--3--3--------2-2-|
Ab|-----2---PMPMPM--------5--PMPMPM-0----3--3--5--5--3--3-PMPMPM-0-0-|
Eb|-3-3-0----0-0-0------------0-3-0------------3--3--1--1--0-3-0-----|
|
Eb|--------------------------------------------------with------------|
Bb|--------------------------------------------------Wah pedal-------|
Gb|--------------------------------------------------7--\5-----------|
Db|--------------------------------------------------5--\3-----------|
Ab|------------------------------------------------------------------|
Eb|------------------------------------------------------------------|

Eb|--------------------------------------------------------------------------|
Bb|------------------8-------------------------------------------------------|
Gb|------------------7----7---------2----5--5--4--4---7-7-7-7--7-7-7-7-------|
Db|-----2------------5----7---------2----5--5--5--5---7-7-7-7--7-7-7-7--PMPM-|
Ab|-----2---PMPMPM--------5--PMPMPM-0----3--3--2--2---5-5-5-5--5-5-5-5--3-2--|
Eb|-3-3-0----0-0-0------------0-3-0------------------------------------------|


[Verse 2]

Eb|-----------------------------------------------------------------|
Bb|-----------------------------------------------------------------|
Gb|-2---0-2-5-5---4-------0-----0-2-2---0-2-5-5---4-------0-----0-2-|
Db|-2---0-2-5-5---4-------0-----0-2-2---0-2-5-5---4-------0-----0-2-|
Ab|-------------0---0-0-0---0-0-----------------0---0-0-0---0-0-----|
Eb|-----------------------------------------------------------------|

Eb|---------------------------------------------------------------|
Bb|-----------------------------------------------------------8\--|
Gb|---------9-9---7-------------------------9-9---7-----------7\--|
Db|---------7-7---5-------------------------7-7---5-----------5\--|
Ab|-----5-7---------------5-----5-7-----5-7-----------------------|
Eb|-0-----------0---0-0-0---0-0-----0-----------0---0-0-0-0-0-----|

Eb|-----------------------------------------------------------------|
Bb|-----------------------------------------------------------------|
Gb|-2---0-2-5-5---4-------0-----0-2-2---0-2-5-5---4-------0-----0-2-|
Db|-2---0-2-5-5---4-------0-----0-2-2---0-2-5-5---4-------0-----0-2-|
Ab|-------------0---0-0-0---0-0-----------------0---0-0-0---0-0-----|
Eb|-----------------------------------------------------------------|

Eb|-------------------------------------------------------------|
Bb|-------------------------------------------------------------|
Gb|---------9-9---7-------------------------9-9---7---------9~--|
Db|---------7-7---5-------------------------7-7---5---------9~--|
Ab|-----5-7---------------5-----5-7-----5-7-----------------7---|
Eb|-0-----------0---0-0-0---0-0-----0-----------0---0-0-0-0-----|


[Pre-Chorus 2]

Eb|-------------------------------------------------------------------------|
Bb|-------------------8-8-8-8--------------5-----4----4-4-4-4---------------|
Gb|-------------------7-7-7-7--------------4-----4----4-4-4-4----------2-2--|
Db|-------------3-----5-5-5-5-------------------------|>wah  ----------2-2--|
Ab|-5-----0-----3--------------5-----0----------------pedal<|----------0-0--|
Eb|----2--------1-----------------2------------------------------0-3-0------|


[Chorus 2]

Eb|------------------------------------------------------------------|
Bb|------------------8-----------------------------------------------|
Gb|------------------7----7---------2----5--5--------------------2-2-|
Db|-----2------------5----7---------2----5--5--5--5--3--3--------2-2-|
Ab|-----2---PMPMPM--------5--PMPMPM-0----3--3--5--5--3--3-PMPMPM-0-0-|
Eb|-3-3-0----0-0-0------------0-3-0------------3--3--1--1--0-3-0-----|
|
Eb|--------------------------------------------------with------------|
Bb|--------------------------------------------------Wah pedal-------|
Gb|--------------------------------------------------7--\5-----------|
Db|--------------------------------------------------5--\3-----------|
Ab|------------------------------------------------------------------|
Eb|------------------------------------------------------------------|

Eb|-------------------------------------------------------------------|
Bb|------------------8------------------------------------------------|
Gb|------------------7----7---------2----5--5--4--4---3---5---7---9---|
Db|-----2------------5----7---------2----5--5--5--5---3---5---7---9---|
Ab|-----2---PMPMPM--------5--PMPMPM-0----3--3--2--2---1---3---5---7---|
Eb|-3-3-0----0-0-0------------0-3-0-----------------------------------|

    Guitar
Eb|-Arm down til------|->machine--------Wah-----------------------------|
Bb|-strings touch-----gunning<-|--------10--------PH--------------------|
Gb|-the fretboard----------------PH-----13bh/~-----7bh/-----------------|
Db|-and strum them----------0--2-4~---------------------9-7---------PH--|
Ab|-w/ left hand------2--4----------------------------------9-7-7-5--5~-|
Eb|-x\--------------------------------------------------|->PM <-|-------|

Eb|--------------------------------------------|
Bb|---------9---7------------------------------|
Gb|-7bh/------8---7--7gh/--\----|->PM<|--------|
Db|--------------------------9--6----------arm-|
Ab|-------------------------------9-6------down|
Eb|-----------------------------------9-7---\--|

Eb|------------------------------------------------------------------|
Bb|------------------8-----------------------------------------------|
Gb|------------------7----7---------2----5--5--------------------2-2-|
Db|-----2------------5----7---------2----5--5--5--5--3--3--------2-2-|
Ab|-----2---PMPMPM--------5--PMPMPM-0----3--3--5--5--3--3-PMPMPM-0-0-|
Eb|-3-3-0----0-0-0------------0-3-0------------3--3--1--1--0-3-0-----|
|
Eb|--------------------------------------------------with------------|
Bb|--------------------------------------------------Wah pedal-------|
Gb|--------------------------------------------------7--\5-----------|
Db|--------------------------------------------------5--\3-----------|
Ab|------------------------------------------------------------------|
Eb|------------------------------------------------------------------|

Eb|-----------------------------------------------------------------------------|
Bb|------------------8----------------------------------------------------------|
Gb|------------------7----7---------2----5--5--4--4---3---5-----7-7-7-7---------|
Db|-----2------------5----7---------2----5--5--5--5---3---5-----7-7-7-7----PMPM-|
Ab|-----2---PMPMPM--------5--PMPMPM-0----3--3--2--2---1---3-----5-5-5-5----3-2--|
Eb|-3-3-0----0-0-0------------0-3-0---------------------------------------------|

Eb|--------------------------------------------------------|
Bb|---------------------------------6-----6-----6-5--------|
Gb|-2-------4-----4-----4---4h5-----5-----5-----5-5--------|
Db|-2-------5-----5-----5---5-------------------------PMPM-|
Ab|-0---0-0---0-0---0-0---0-----0-0---0-0---0-0--------3-2-|
Eb|--------------------------------------------------------|

Eb|------------------------------------------------------------------|
Bb|---------------------------------6-----6-----6-5------------------|
Gb|-2-------4-----4-----4---4h5-----5-----5-----5-5--------2------2--|
Db|-2-------5-----5-----5---5-------------------------PMPM-2-PMPM-2--|
Ab|-0---0-0---0-0---0-0---0-----0-0---0-0---0-0--------3-2-0--3-2-0--|
Eb|------------------------------------------------------------------|

    Outro solo w/ wah pedal
Eb|-12---~---------------------------22b1/~---20~---------------|
Bb|-15b1/~--\---------------------------------------------------|
Gb|---------------------------12~--------------------------12~--|
Db|------------xx--14-14--14-------------------------10~---12~--|
Ab|-------------------------------------------------------------|
Eb|-------------------------------------------------------------|

Eb|-15b1/--\p12-15b1/----@------@----@-----@-----@-----@-----@--------|
Bb|----------------------17^16-17^15-17^14-17^13-17^12-17^11-17^10???-|
Gb|-------------------------------------------------------------------|
Db|-------------------------------------------------------------------|
Ab|-------------------------------------------------------------------|
Eb|-------------------------------------------------------------------|

************************************

| x  Dead note
| h  Hammer-on
| b  Bend
| /  Slide up
| \  Slide down
| ~  Vibrato

************************************

            
            
Suggest correction
Creating personal tab
Creating personal tab
You can edit any tab online and save it as your Personal.

You can edit, replace or remove any tab part or add personal notes – all changes will be seen only by you.

Personal tabs can be accessed anytime from any device, even offline.
Learn more »
Give kudos to tab author, rate the tab!
1 2 3 4 5
comments
print report bad tab
guest
Wanna post a correction for this tab? Suggest correction