Oops, an error
Loading. Please wait.

No Guarantees tab

by TNT
7 views 1 this week
no commentswrite comment
1 2 3 4 5
3 more votes to show rating
add to favorites
×
Save as Personal and add changes to this tab that will be seen only by you. Learn more ›
×
You can save this tab as Personal to edit and correct it or add notes. All changes will be seen only by you. Learn more »
launch autoscroll
font size
0
reset
how to read this tab
guitar tuner
edit
Autoscroll
slow
fast
+/-
esc
set tempo
stop
Artist : TNT
Song   : No Guarantees
Album  : Transistor
Tuning : A half a step lower

[Intro]
D#|------------------------------------------------|
A#|------------------------------------------------|
F#|-Feedback---------------------------------------|
C#|-x~-------------7-7-7-7-7-7-7\--3---3-3---3-3---|
G#|----------------7-7-7-7-7-7-7\--3---3-3---3-3---|
D#|----------------5-5-5-5-5-5-5\--1---1-1---1-1---|
  |
D#|------------------------------------------------|
A#|--------------------------------4---4-4---4-4---|
F#|------------------------------------------------|
C#|--------------------------------3---3-3---3-3---|
G#|------------------------------------------------|
D#|------------------------------------------------|

D#|-----------------------------------------------------------------|
A#|-----------------------------------------------------------------|
F#|-----------------------------------------------------------------|
C#|-7-7-7-7-7-7-7\--5---5-5---5-5---7-7-7-7-7-7-7\--3---3-3---3-3---|
G#|-7-7-7-7-7-7-7\--5---5-5---5-5---7-7-7-7-7-7-7\--3---3-3---3-3---|
D#|-5-5-5-5-5-5-5\--3---3-3---3-3---5-5-5-5-5-5-5\--1---1-1---1-1---|
|
D#|-----------------------------------------------------------------|
A#|----------------/6-6-6-6---6-6------------------/4-4-4-4-4-4-4---|
F#|----------------/8-8-8-8---8-8-----------------------------------|
C#|------------------------------------------------/3-3-3-3-3-3-3---|
G#|-----------------------------------------------------------------|
D#|-----------------------------------------------------------------|

[Verse 1]
D#|-------------------------------------------------------------|
A#|----------5--5-----------5--5-----------5--5-----------5--5--|
F#|-3bq/--\--2--2--3bq/--\--2--2--3bq/--\--2--2--3bq/--\--2--2--|
C#|----------2--2-----------2--2-----------2--2-----------2--2--|
G#|----------0--0-----------0--0-----------0--0-----------0--0--|
D#|---------PM-PM----------PM-PM----------PM-PM----------PM-PM--|

D#|-------3--------------3--------------3--------------3--------|
A#|----------5--5-----------5--5-----------5--5-----------5--5--|
F#|-3bq/-----2--2--3bq/-----2--2--3bq/-----2--2--3bq/-----2--2--|
C#|----------2--2-----------2--2-----------2--2-----------2--2--|
G#|----------0--0-----------0--0-----------0--0-----------0--0--|
D#|---------PM-PM----------PM-PM----------PM-PM----------PM-PM--|

D#|-------3--------------3--------------3--------------3--------|
A#|----------5--5-----------5--5-----------5--5-----------5--5--|
F#|-3bq/-----2--2--3bq/-----2--2--3bq/-----2--2--3bq/-----2--2--|
C#|----------2--2-----------2--2-----------2--2-----------2--2--|
G#|----------0--0-----------0--0-----------0--0-----------0--0--|
D#|---------PM-PM----------PM-PM----------PM-PM----------PM-PM--|

 
[Chorus 1]
D#|-----------------------------------------------|
A#|-----------------------------------------------|
F#|-5----5-----------------5----5-----------------|
C#|-5----5-----------------5----5-----------------|
G#|-3----3-----------------3----3-----------------|
D#|-----------3-5--3-5--3------------3-5--3-5--3--|

D#|--------------------------------------------|
A#|--------------------------------------------|
F#|-5----5----2----2----7----7-----------------|
C#|-5----5----2----2----7----7----5-5--5-5--5--|
G#|-3----3----0----0----5----5----5-5--5-5--5--|
D#|-------------------------------3-3--3-3--3--|

D#|-------------------------------------------|
A#|-------------------------------------------|
F#|-7----7---------------7----7---------------|
C#|-7----7----5-5--5--5--7----7----5-5--5--5--|
G#|-5----5----5-5--5--5--5----5----5-5--5--5--|
D#|-----------3-3--3--3------------3-3--3--3--|

D#|----------------------------------------------|
A#|----------------------------------------------|
F#|-7----7----9----9----12-12-12-12-12-12-12-12--|
C#|-7----7----9----9----12-12-12-12-12-12-12-12--|
G#|-5----5----7----7----10-10-10-10-10-10-10-10--|
D#|----------------------------------------------|


[Verse 2]
D#|----------------------------------------------------3--------|
A#|----------5--5-----------5--5-----------5--5-----------5--5--|
F#|-3bq/--\--2--2--3bq/--\--2--2--3bq/--\--2--2--3bq/-----2--2--|
C#|----------2--2-----------2--2-----------2--2-----------2--2--|
G#|----------0--0-----------0--0-----------0--0-----------0--0--|
D#|---------PM-PM----------PM-PM----------PM-PM----------PM-PM--|

D#|-------3--------------3--------------3--------------3--------|
A#|----------5--5-----------5--5-----------5--5-----------5--5--|
F#|-3bq/-----2--2--3bq/-----2--2--3bq/-----2--2--3bq/-----2--2--|
C#|----------2--2-----------2--2-----------2--2-----------2--2--|
G#|----------0--0-----------0--0-----------0--0-----------0--0--|
D#|---------PM-PM----------PM-PM----------PM-PM----------PM-PM--|

[Chorus 2]
D#|-----------------------------------------------|
A#|-----------------------------------------------|
F#|-5----5-----------------5----5-----------------|
C#|-5----5-----------------5----5-----------------|
G#|-3----3-----------------3----3-----------------|
D#|-----------3-5--3-5--3------------3-5--3-5--3--|

D#|--------------------------------------------|
A#|---------------------------------7-7--7-7---|
F#|-5----5----2----2----7----7------7-7--7-7---|
C#|-5----5----2----2----7----7------5-5--5-5---|
G#|-3----3----0----0----5----5-----------------|
D#|--------------------------------------------|

D#|-----------------------------------------------|
A#|-----------------------------------------------|
F#|-7----7-----------------7----7-----------------|
C#|-7----7------5--5-5--5--7----7------5--5-5--5--|
G#|-5----5------5--5-5--5--5----5------5--5-5--5--|
D#|-------------3--3-3--3--------------3--3-3--3--|

D#|----------------------------------------------|
A#|----------------------------------------------|
F#|-7----7----9----9----12-12-12-12-12-12-12-12--|
C#|-7----7----9----9----12-12-12-12-12-12-12-12--|
G#|-5----5----7----7----10-10-10-10-10-10-10-10--|
D#|----------------------------------------------|

[Guitar Solo
]
D#|-------------------------------------------------------/10-10-10-10~---------------|
A#|----------------12---\11--12~\------------------/12~-------------------------------|
F#|-<5>~-------10-----------------------<5>~------------------------------|
C#|-----------------------------------------------------------------------------------|
G#|-----------------------------------------------------------------------------------|
D#|-----------------------------------------------------------------------------------|

D#|------------10---------------------------------|
A#|----10bq/-----------12~------13-13-13-13...----|
F#|-10--------------------------------------------|
C#|-----------------------------------------------|
G#|-----------------------------------------------|
D#|-----------------------------------------------|

[Backing guitar during solo
]
D#|--------------------------------------------|
A#|--------------------------------------------|
F#|--------------------------------------------|
C#|-7---7---7---7---3---3---3---3--------------|
G#|-7---7---7---7---3---3---3---3--------------|
D#|-5---5---5---5---1---1---1---1--------------|
|
D#|--------------------------------------------|
A#|-----------------/4--4-4--4-4--4-4--4-4--4--|
F#|-----------------/3--3-3--3-3--3-3--3-3--3--|
C#|-----------------/1--1-1--1-1--1-1--1-1--1--|
G#|--------------------------------------------|
D#|--------------------------------------------|

D#|--------------------------------------------|
A#|--------------------------------------------|
F#|--------------------------------------------|
C#|-7---7---7---7---5---5---5---5--------------|
G#|-7---7---7---7---5---5---5---5--------------|
D#|-5---5---5---5---3---3---3---3--------------|
|
D#|--------------------------------------------|
A#|-----------------/6--6-6--6-6--6-6--6-6-6-6-|
F#|-----------------/5--5-5--5-5--5-5--5-5-5-5-|
C#|-----------------/3--3-3--3-3--3-3--3-3-3-3-|
G#|--------------------------------------------|
D#|--------------------------------------------|

D#|-----------------------------------------------------------------------|
A#|-----------------------------------------------------------------------|
F#|-----------------------------------------------------------------------|
C#|-7---7\--3---3----------------------7---7\--5---5----------------------|
G#|-7---7\--3---3----------------------7---7\--5---5----------------------|
D#|-5---5\--1---1----------------------5---5\--3---3----------------------|
|
D#|-----------------------------------------------------------------------|
A#|---------/4--4-4--4-4--4-4--4-4--4----------/6--6-6--6-6--6-6--6-6-6-6-|
F#|---------/3--3-3--3-3--3-3--3-3--3----------/5--5-5--5-5--5-5--5-5-5-5-|
C#|---------/1--1-1--1-1--1-1--1-1--1----------/3--3-3--3-3--3-3--3-3-3-3-|
G#|-----------------------------------------------------------------------|
D#|-----------------------------------------------------------------------|

D#|------------------------------------------------------------------|
A#|------------------------------------------------------------------|
F#|------------------------------------------------------------------|
C#|-9---9\--5---5--------------------9---9\--5---5-------------------|
G#|-9---9\--5---5--------------------9---9\--5---5-------------------|
D#|-7---7\--3---3--------------------7---7\--3---3-------------------|
|
D#|------------------------------------------------------------------|
A#|---------/11-11-11-11-11-11-11\-----------/11-11-11-11-11-11-11\--|
F#|---------/10-10-10-10-10-10-10\-----------/10-10-10-10-10-10-10\--|
C#|---------/-8--8--8--8--8--8--8\-----------/-8--8--8--8--8--8--8\--|
G#|------------------------------------------------------------------|
D#|------------------------------------------------------------------|

D#|------------------------------------------------------------------|
A#|------------------------------------------------------------------|
F#|-6---6\--2---2--------------------6---6\--2---2-------------------|
C#|-6---6\--2---2--------------------6---6\--2---2-------------------|
G#|-4---4\--0---0--------------------4---4\--0---0-------------------|
D#|------------------------------------------------------------------|
|
D#|------------------------------------------------------------------|
A#|---------/13-13-13-13-13-13-13\-----------/13-13-13-13-13-13-13\--|
F#|---------/12-12-12-12-12-12-12\-----------/12-12-12-12-12-12-12\--|
C#|---------/11-11-11-11-11-11-11\-----------/11-11-11-11-11-11-11\--|
G#|------------------------------------------------------------------|
D#|------------------------------------------------------------------|

[Last Chorus
]
D#|-----------------------------------------------|
A#|-----------------------------------------------|
F#|-5----5-----------------5----5-----------------|
C#|-5----5-----------------5----5-----------------|
G#|-3----3-----------------3----3-----------------|
D#|-----------3-5--3-5--3------------3-5--3-5--3--|

D#|--------------------------------------------|
A#|---------------------------------7-7--7-7---|
F#|-5----5----2----2----7----7------7-7--7-7---|
C#|-5----5----2----2----7----7------5-5--5-5---|
G#|-3----3----0----0----5----5-----------------|
D#|--------------------------------------------|

D#|-----------------------------------------------|
A#|-----------------------------------------------|
F#|-7----7-----------------7----7-----------------|
C#|-7----7------5--5-5--5--7----7------5--5-5--5--|
G#|-5----5------5--5-5--5--5----5------5--5-5--5--|
D#|-------------3--3-3--3--------------3--3-3--3--|

D#|----------------------------------------------|
A#|----------------------------------------------|
F#|-7----7----9----9----12-12-12-12-12-12-12-12--|
C#|-7----7----9----9----12-12-12-12-12-12-12-12--|
G#|-5----5----7----7----10-10-10-10-10-10-10-10--|
D#|----------------------------------------------|

D#|--------------------------------------------|
A#|-------------4--4--4--------------6--6--6---|
F#|----------------------------------8--8--8---|
C#|-7----7\-----3--3--3--7----7\---------------|
G#|-7----7\--------------7----7\---------------|
D#|-5----5\--------------5----5\---------------|

D#|-------------------------------------------------------|
A#|------------/4--4--4--------------6-6-6-6-6-6-6\-------|
F#|----------------------------------8-8-8-8-8-8-8\-------|
C#|-7----7\----/3--3--3--7----7\--------------------7-\---|
G#|-7----7\--------------7----7\--------------------7-\---|
D#|-5----5\--------------5----5\--------------------5-\---|


************************************

| \  Slide down
| /  Slide up
| ~  Vibrato

************************************

            
            
Suggest correction
Creating personal tab
Creating personal tab
You can edit any tab online and save it as your Personal.

You can edit, replace or remove any tab part or add personal notes – all changes will be seen only by you.

Personal tabs can be accessed anytime from any device, even offline.
Learn more »
Give kudos to tab author, rate the tab!
1 2 3 4 5
comments
print report bad tab
guest
You may want to rate the tab now too:
select rating
Wanna post a correction for this tab? Suggest correction