Oops, an error
Loading. Please wait.

No Such Thing tab

by TNT
1 view 1 this week
no commentswrite comment
1 2 3 4 5
3 more votes to show rating
add to favorites
×
Save as Personal and add changes to this tab that will be seen only by you. Learn more ›
×
You can save this tab as Personal to edit and correct it or add notes. All changes will be seen only by you. Learn more »
launch autoscroll
font size
0
reset
how to read this tab
guitar tuner
edit
Autoscroll
slow
fast
+/-
esc
set tempo
stop
Artist : TNT
Song   : No Such Thing
Album  : Transistor
Tuning : A half a step lower

[Intro]
D#|-0-0-0-0-0-0-0-0-0-0-0-0-0-0-0-0-0-0-0-0-0-0-0-0-0-0-0-0-0-0-0-0-|
A#|-0-0-0-0-0-0-0-0-0-0-0-0-0-0-0-0-0-0-0-0-0-0-0-0-0-0-0-0-0-0-0-0-|
F#|-4-4-4-4\0-0-0-0-2-2-2-2\0-0-0-0-4-4-4-4\0-0-0-0-2-2-2-2\0-0-0-0-|
C#|-----------------------------------------------------------------|
G#|-----------------------------------------------------------------|
D#|-----------------------------------------------------------------|

[Verse 1]
D#|-0-------0---0---0-------0---0---0-------0---0---0------------------|
A#|-0---0---0---1---2---2---0---1---2---2---0---1---2---2--------------|
F#|-6-------------------------------------------------------4-4-4-4----|
C#|-6-------------------------------------------------------4-4-4-4----|
G#|-4-------------------------------------------------------2-2-2-2...-|
D#|--------------------------------------------------------------------|
|
  |                             |-> Clean tone<-|
D#|-----------------------------0-----0-----0---0----------------------|
A#|-------------------------------4-----4-----4------------------------|
F#|---------------------------------4-----4----------------------------|
C#|--------------------------------------------------------------------|
G#|--------------------------------------------------------------------|
D#|--------------------------------------------------------------------|

[Chorus 1]
D#|-0-0-0-0-0-0-0-0-0-0-0-0-0-0-0-0-0-0-0-0-0-0-0-0-0-0-0-0-0-0-0-0-|
A#|-0-0-0-0-0-0-0-0-0-0-0-0-0-0-0-0-0-0-0-0-0-0-0-0-0-0-0-0-0-0-0-0-|
F#|-4-4-4-4\0-0-0-0-2-2-2-2\0-0-0-0-4-4-4-4\0-0-0-0-2-2-2-2\0-0-0-0-|
C#|-----------------------------------------------------------------|
G#|-----------------------------------------------------------------|
D#|-----------------------------------------------------------------|

[Verse 2]
D#|-0-------0---0---0-------0---0---0-------0---0---0------------------|
A#|-0---0---0---1---2---2---0---1---2---2---0---1---2---2--------------|
F#|-6-------------------------------------------------------4-4-4-4----|
C#|-6-------------------------------------------------------4-4-4-4----|
G#|-4-------------------------------------------------------2-2-2-2...-|
D#|--------------------------------------------------------------------|
|
  |                             |> Clean tone<|
D#|-----------------------------0-----0-------0------------------------|
A#|-------------------------------4-----4------------------------------|
F#|---------------------------------4-----4-----------------x/---------|
C#|--------------------------------------------------------------------|
G#|--------------------------------------------------------------------|
D#|--------------------------------------------------------------------|

[Chorus 2]
D#|-0-0-0-0-0-0-0-0-0-0-0-0-0-0-0-0-0-0-0-0-0-0-0-0-0-0-0-0-0-0-0-0-|
A#|-0-0-0-0-0-0-0-0-0-0-0-0-0-0-0-0-0-0-0-0-0-0-0-0-0-0-0-0-0-0-0-0-|
F#|-4-4-4-4\0-0-0-0-2-2-2-2\0-0-0-0-4-4-4-4\0-0-0-0-2-2-2-2\0-0-0-0-|
C#|-----------------------------------------------------------------|
G#|-----------------------------------------------------------------|
D#|-----------------------------------------------------------------|

D#|-3-3-3-3---------5-5-5-5-3-3-3-3-0-0-0-0-0-0-0-0-0-0-0-0-0-0-0-0-0-0-0--|
A#|-3-3-3-3-3-3-3-3-4-4-4-4-3-3-3-3-0-0-0-0-0-0-0-0-0-0-0-0-0-0-0-0-0-0-0--|
F#|-0-0-0-0-2-2-2-2-2-2-2-2-0-0-0-0-4-4-4-4-4-4-4-4-4-4-4-4-0-0-0-0-0-0-0--|
C#|---------0-0-0-0---------------------------------4-4-4-4----------------|
G#|------------------------------------------------------------------------|
D#|------------------------------------------------------------------------|

D#|-|> PM<|-------------------17\15\14~-~-------------------------------------|
A#|-----3-------------15~-~-~-~--~--~---~-------------------------------------------|
F#|-0-0-0-0-----------|->   with bar  <-|---------<12>-5h7p5p0-/--------|
C#|-|>Rep<|--------------------------------------------|>Rep<|-w/-bar---|
G#|---eat------------------------------------------------eat------------------------|
D#|---------------------------------------------------------------------------------|

[Guitar Solo] (Backing guitar repeats the intro)
D#|---------------------------------------------------------------------------|
A#|---------------------------------Slide right hand down over the------------|
F#|-<12>-5h7p5p0--------------------5th-string toward the head----------|
C#|------|>Rep------<12>-5h7p5p0----|--------------------------------|
G#|--------eat<|---------|>Rep------x\-3h5p3p0--------------------------|
D#|------------------------eat<|-------|Repeat|----------------------------|

                                |-> I'm not too sure about this part...   <-|
D#|-------17~----22b1/--22g~----22b1/--22g~----------22g----------22g----------|
A#|----17----------------------------------------------------------------------|
F#|-16--------------------------------------21-19-21-----21-19-21-----21-19-21-|
C#|----------------------------------------------------------------------------|
G#|----------------------------------------------------------------------------|
D#|----------------------------------------------------------------------------|

D#|-21/22~--------------------------12---------|
A#|-----------14h15p14p12h14-14bh/-----15b1/~--|
F#|--------------------------------------------|
C#|--------------------------------------------|
G#|--------------------------------------------|
D#|--------------------------------------------|

D#|-------------------@-----@---------15-12~-------------------------|
A#|-------15p12-12h15h20p15h19p15-b1/------------------@-------------|
F#|-14b1/---------------------------------------14b1/--17p14g-~------|
C#|----------------------------------------------------|>Rep------|
G#|-----------------------------------------------------eat<|-----|
D#|------------------------------------------------------------------|
|                                             |>Tapping with right hand
|                                             while bending with left hand<|
|                                                    @
D#|---------------------------------------------14bh/--15p14g-~------|
A#|----------------------------------------------------|>Rep------|
F#|-----------------------------------------------------eat<|-----|
C#|------------------------------------------------------------------|
G#|------------------------------------------------------------------|
D#|------------------------------------------------------------------|

[Last Pre-Chorus]
D#|-3-3-3-3---------5-5-5-5-3-3-3-3-0-0-0-0-0-0-0-0-|
A#|-3-3-3-3-3-3-3-3-4-4-4-4-3-3-3-3-0-0-0-0-0-0-0-0-|
F#|-0-0-0-0-2-2-2-2-2-2-2-2-0-0-0-0-4-4-4-4-4-4-4-4-|
C#|---------0-0-0-0---------------------------------|
G#|-------------------------------------------------|
D#|-------------------------------------------------|

D#|-0-0-0-0-0-0-0---0-0-0-0-0-0-0-0--|
A#|-4-4-4-4-4-4-4---5-5-5-5-5-5-5-5--|
F#|-4-4-4-4-4-4-4---4-4-4-4-4-4-4-4--|
C#|-1-1-1-1-1-1-1---2-2-2-2-2-2-2-2--|
G#|----------------------------------|
D#|----------------------------------|

(Repeat Chorus)

[Guitar at CD time]
    : 3'03"           : 3'09"        : 3'20"
D#|-12-12-12-12-------/15\12~--------12---------------------|
A#|-|>Repeat <|---------------0----------12\10~\8~----|
F#|---------------------------------------------------------|
C#|---------------------------------------------------------|
G#|---------------------------------------------------------|
D#|---------------------------------------------------------|

    : 3'33"
D#|----------15b1/~--15g~----15b1/~--15b1/~--15b1/~--15b1/~...--|
A#|-15~---15----------------------------------------------------|
F#|-------------------------------------------------------------|
C#|-------------------------------------------------------------|
G#|-------------------------------------------------------------|
D#|-------------------------------------------------------------|


************************************

| b  Bend
| \  Slide down
| ~  Vibrato
| h  Hammer-on
| p  Pull-off
| /  Slide up
| g  Grace note


************************************

            
            
Suggest correction
Creating personal tab
Creating personal tab
You can edit any tab online and save it as your Personal.

You can edit, replace or remove any tab part or add personal notes – all changes will be seen only by you.

Personal tabs can be accessed anytime from any device, even offline.
Learn more »
Give kudos to tab author, rate the tab!
1 2 3 4 5
comments
print report bad tab
guest
You may want to rate the tab now too:
select rating
Wanna post a correction for this tab? Suggest correction