Oops, an error
Loading. Please wait.

The Hole Youre In tab

by TNT
7 views 1 this week
no commentswrite comment
1 2 3 4 5
3 more votes to show rating
add to favorites
×
Save as Personal and add changes to this tab that will be seen only by you. Learn more ›
×
You can save this tab as Personal to edit and correct it or add notes. All changes will be seen only by you. Learn more »
launch autoscroll
font size
0
reset
how to read this tab
guitar tuner
edit
Autoscroll
slow
fast
+/-
esc
set tempo
stop
Artist : TNT
Song   : The Hole You're In
Album  : Transistor
Tuning : A half a step lower

[Intro] 
(Palm muting on the 6th string)
D#|--------------------------------------------------------|
A#|--------------------------------------------------------|
F#|---------------9-9-9-9-9----------------11-11-11-11-11--|
C#|--------------------------------------------------------|
G#|---------------9-9-9-9-9----------------10-10-10-10-10--|
D#|-0-0--0-0-0--0------------0-0--0-0-0--0-----------------|

D#|------------------------------------------------------------------------|
A#|------------------------------------------------------------------------|
F#|---------------12-12-12-12-12-12-12----------------12-12-12-12-12-12----|
C#|---------------------------------------------------11-11-11-11-11-11-x\-|
G#|---------------10-10-10-10-10-10-10-------------------------------------|
D#|-0-0--0-0-0--0-----------------------0-0--0-0-0--0----------------------|

D#|-----------------------------------------------------------|
A#|-----------------------------------------------------------|
F#|---------------9-9-9-9-9-------------------11-11-11-11-11--|
C#|-----------------------------------------------------------|
G#|---------------9-9-9-9-9-------------------10-10-10-10-10--|
D#|-0-0--0-0-0--0------------0-0--0-0-0--0-0------------------|

D#|--------------------------------------------------------------|
A#|--------------------------------------------------------------|
F#|---------------12-12-12-12-12-12\-------------------12-12-12--|
C#|----------------------------------------------------11-11-11--|
G#|---------------10-10-10-10-10-10\-----------------------------|
D#|-0-0--0-0-0--0---------------------0-0--0-0-0--0-0------------|

[Verse 1]
D#|--------------------------------------------------------------|
A#|--------------------------------------------------------------|
F#|------------------9-9-9-9-9-------------------11-11-11-11-11--|
C#|--------------------------------------------------------------|
G#|------------------9-9-9-9-9-------------------10-10-10-10-10--|
D#|-0-0--0-0-0--0-0-------------0-0--0-0-0--0-0------------------|

D#|--------------------------------------------------------------------|
A#|--------------------------------------------------------------------|
F#|------------------12-12-12-12-12--------------------12-12-12-12-12--|
C#|----------------------------------------------------11-11-11-11-11--|
G#|------------------10-10-10-10-10------------------------------------|
D#|-0-0--0-0-0--0-0------------------0-0--0-0-0--0-0-0-----------------|

D#|--------------------------------------------------------------|
A#|--------------------------------------------------------------|
F#|------------------9-9-9-9-9-------------------11-11-11-11-11--|
C#|--------------------------------------------------------------|
G#|------------------9-9-9-9-9-------------------10-10-10-10-10--|
D#|-0-0--0-0-0--0-0-------------0-0--0-0-0--0-0------------------|

D#|---------------------------------------------------------------|
A#|---------------------------------------------------------------|
F#|------------------12-12-12-12-12--------------------12-12-12\--|
C#|----------------------------------------------------11-11-11\--|
G#|------------------10-10-10-10-10-------------------------------|
D#|-0-0--0-0-0--0-0------------------0-0--0-0-0--0-0-0------------|

[Chorus]
D#|-----------------------------------------------|
A#|-----------------------------------------------|
F#|-6-8--9--6-8--9--6-8----6-8--9--6-8--9--6-8-9--|
C#|----------------------6------6-------6------6--|
G#|-----------------------------------------------|
D#|-----------------------------------------------|

D#|-----------------------------------------------|
A#|-----------------------------------------------|
F#|-6-8--9--6-8--9--6-8-9--6-8--9--6-8--9--6-8-9--|
C#|------6-------6------6-------6-------6------6--|
G#|-----------------------------------------------|
D#|-----------------------------------------------|

D#|----------------------------------------------|
A#|----------------------------------------------|
F#|-6-8--9--6-8--9--6-8-9--6-8--9--6-8--8--6-8---|
C#|------6-------6------6-------6-------6--------|
G#|----------------------------------------------|
D#|----------------------------------------------|

D#|----------------------9h11-----------------------|
A#|-------------------------------------------------|
F#|-6-8--9--6-8--9--6-8-----------------------------|
C#|------6-------6--------------------------x-x-x-x-|
G#|----------------------------------x-x-x----------|
D#|-----------------------------2-------------------|

D#|-----------------------------------------------------------------|
A#|-----------------------------------------------------------------|
F#|-------------------9-9-9-9-9-9-------------------11-11-11-11-11--|
C#|-----------------------------------------------------------------|
G#|---------------x-x-9-9-9-9-9-9-------------------10-10-10-10-10--|
D#|-0-0--0-0--0-0------------------0-0--0-0-0--0-0------------------|

D#|--------------------------------------------------------------------|
A#|--------------------------------------------------------------------|
F#|------------------12-12-12-12-12-12-------------------12--12-12-12--|
C#|------------------------------------------------------11--11-11-11--|
G#|------------------10-10-10-10-10-10---------------------------------|
D#|-0-0--0-0-0--0-0---------------------0-0--0-0-0--0-0----------------|

[Verse 2]
D#|--------------------------------------------------------------|
A#|--------------------------------------------------------------|
F#|------------------9-9-9-9-9-------------------11-11-11-11-11--|
C#|--------------------------------------------------------------|
G#|------------------9-9-9-9-9-------------------10-10-10-10-10--|
D#|-0-0--0-0-0--0-0-------------0-0--0-0-0--0-0------------------|

D#|----------------------------------------------------------------------|
A#|----------------------------------------------------------------------|
F#|------------------12-12-12-12-12-------------------12-12-12-12-12-12--|
C#|---------------------------------------------------11-11-11-11-11-11--|
G#|------------------10-10-10-10-10--------------------------------------|
D#|-0-0--0-0-0--0-0------------------0-0--0-0-0--0-0---------------------|

D#|--------------------------------------------------------------|
A#|--------------------------------------------------------------|
F#|------------------9-9-9-9-9-------------------11-11-11-11-11--|
C#|--------------------------------------------------------------|
G#|------------------9-9-9-9-9-------------------10-10-10-10-10--|
D#|-0-0--0-0-0--0-0-------------0-0--0-0-0--0-0------------------|

D#|------------------------------------------------------------------|
A#|------------------------------------------------------------------|
F#|------------------12-12-12-12-12------------12-12-12-12-12-12-12--|
C#|--------------------------------------------11-11-11-11-11-11-11--|
G#|------------------10-10-10-10-10----------------------------------|
D#|-0-0--0-0-0--0-0------------------0-0--0-0--0-0-0-----------------|

[Chorus 2]                               (x3)
D#|-----------------------------------------------|
A#|-----------------------------------------------|
F#|-6-8--9--6-8--9--6-8-9--6-8--9--6-8--9--6-8-9--|
C#|------6-------6------6-------6-------6------6--|
G#|-----------------------------------------------|
D#|-----------------------------------------------|

D#|---------------------------------------------------------|
A#|-----------------7/9-9--7/9-9-9-9-9-10--12-12-12-12-12\--|
F#|-6-8--9--6-8--9------------------------------------------|
C#|------6-------6------------------------------------------|
G#|---------------------------------------------------------|
D#|---------------------------------------------------------|

[Guitar Solo] (with Wah pedal)
D#|----------------------------------------------------|
A#|-15---16bq/-----------------------------------------|
F#|-16---17bq/---11-11-11bq/--x-x----------------------|
C#|-------------------------------13p10-x------11bq/---|
G#|----------------------------------------------------|
D#|----------------------------------------9\----------|

D#|--------------------------------------------------------------|
A#|-|->        Palm muting        <-|-----------5----------|
F#|-0h2h4p2p0---------------------------8bq/-------6-7~----------|
C#|-----------0-5-4-5-0-0----------------------------------------|
G#|-----------------------3-5-2-0--------------------------------|
D#|-------------------------------3-0----------------------------|

D#|--------------------12----------------12---------12--------12-12----------|
A#|-x-x-15--14bh/--\/-----15b1/---15b1/------15b1/------15b1/-------15bh/\~--|
F#|--------------------------------------------------------------------------|
C#|--------------------------------------------------------------------------|
G#|--------------------------------------------------------------------------|
D#|--------------------------------------------------------------------------|

D#|-15-14-15-14----------------------------------------------------------------|
A#|-------------17-15-14-15-14-----------14-15-14------------------------------|
F#|----------------------------16-15--16----------16-15-14--15-14--------------|
C#|----------------------------------------------------------------17-15-17-17-|
G#|----------------------------------------------------------------------------|
D#|----------------------------------------------------------------------------|

D#|-------------------|
A#|-.-----------------|
F#|-15uh--15g-b\-/~---|
C#|-------------------|
G#|-------------------|
D#|-------------------|

[Chorus 3]                               (x3)
D#|-----------------------------------------------|
A#|-----------------------------------------------|
F#|-6-8--9--6-8--9--6-8-9--6-8--9--6-8--9--6-8-9--|
C#|------6-------6------6-------6-------6------6--|
G#|-----------------------------------------------|
D#|-----------------------------------------------|

D#|-----------------------------------------------------------------------|
A#|-----------------------------------------------------------------------|
F#|-6-8---6-8---8--9--9/11-11--11/13-13----13/14-14--14/16-16--16/19-19\--|
C#|-------------------------------------13--------------------------------|
G#|-------------------------------------PM--------------------------------|
D#|-----------------------------------------------------------------------|

D#|-----------------------------------------------------------|
A#|-15b1/-----------------------------------------------------|
F#|--------16-16-16--16--16-------------------11-11-11-11-11--|
C#|--------14-14-14--14--14-----------------------------------|
G#|-------------------------------------------10-10-10-10-10--|
D#|--------------------------0-0--0-0-0--0-0------------------|

D#|-----------------------------------------------------------------|
A#|-----------------------------------------------------------------|
F#|------------------12-12-12-12-12-------------------12--12-12-12--|
C#|---------------------------------------------------11--11-11-11--|
G#|------------------10-10-10-10-10---------------------------------|
D#|-0-0--0-0-0--0-0------------------0-0--0-0-0--0-0----------------|

D#|--------------------------------------------------------------|
A#|--------------------------------------------------------------|
F#|------------------9-9-9-9-9-------------------11-11-11-11-11--|
C#|--------------------------------------------------------------|
G#|------------------9-9-9-9-9-------------------10-10-10-10-10--|
D#|-0-0--0-0-0--0-0-------------0-0--0-0-0--0-0------------------|

D#|-----------------------------------------------------------------|
A#|-----------------------------------------------------------------|
F#|------------------12-12-12-12-12-------------------12--12-12-12--|
C#|---------------------------------------------------11--11-11-11--|
G#|------------------10-10-10-10-10---------------------------------|
D#|-0-0--0-0-0--0-0------------------0-0--0-0-0--0-0----------------|

D#|--------------------------------------------------------------|
A#|--------------------------------------------------------------|
F#|------------------9-9-9-9-9-------------------11-11-11-11-11--|
C#|--------------------------------------------------------------|
G#|------------------9-9-9-9-9-------------------10-10-10-10-10--|
D#|-0-0--0-0-0--0-0-------------0-0--0-0-0--0-0------------------|

D#|-------------------------------------------------------------------|
A#|-------------------------------------------------------------------|
F#|------------------12-12-12-12-12---------------------12--12-12-12--|
C#|-----------------------------------------------------11--11-11-11--|
G#|------------------10-10-10-10-10-----------------x-x---------------|
D#|-0-0--0-0-0--0-0------------------0-0--0-0--0-0--------------------|

[Outro]
D#|-------11-12--11/12-12--/14-14-12-14/16-16-12-16/17-----------------------|
A#|-12-14-----------------------------------------------17\-----7~-----------|
F#|-|->Repeat<-|----------------------------------------16\-----7~-----|
C#|-----------------------------------------------------Bar------------------|
G#|-----------------------------------------------------down-----------------|
D#|--------------------------------------------------------------------------|

    |-> with bar                          <-|
D#|-----14bq/~--------14bq/~--------------------|
A#|---------------------------------------------|
F#|----------------------------------x/~--------|
C#|---------------------------------------------|
G#|----------------------------------------x/---|
D#|-x\-----------x\------------x\---------------|



************************************

| \  Slide down
| h  Hammer-on
| x  Dead note
| /  Slide up
| p  Pull-off
| ~  Vibrato
| b  Bend
| g  Grace note


************************************
Suggest correction
Creating personal tab
Creating personal tab
You can edit any tab online and save it as your Personal.

You can edit, replace or remove any tab part or add personal notes – all changes will be seen only by you.

Personal tabs can be accessed anytime from any device, even offline.
Learn more »
Give kudos to tab author, rate the tab!
1 2 3 4 5
comments
print report bad tab
guest
You may want to rate the tab now too:
select rating
Wanna post a correction for this tab? Suggest correction