Oops, an error
Loading. Please wait.

Under My Pillow tab

by TNT
4 views 1 this week
no commentswrite comment
1 2 3 4 5
2 more votes to show rating
add to favorites
×
Save as Personal and add changes to this tab that will be seen only by you. Learn more ›
×
You can save this tab as Personal to edit and correct it or add notes. All changes will be seen only by you. Learn more »
launch autoscroll
font size
0
reset
how to read this tab
guitar tuner
edit
Autoscroll
slow
fast
+/-
esc
set tempo
stop
"Under My Pillow" by TNT

Artist : TNT
Song   : Under My Pillow
Album  : Transistor
Tuning : A half a step lower

        This is NOT an accurate tab!  I can tell that the
intro is not correct because it sounds like a G note is
slid up to A while another A keeps ringing.  I have no clue
how you can play like that unless you stretch your fingers.
I'm not too sure about the chorus part either.


[Intro]
D#|-------------------------------------------------------------|
A#|---------3---3-------------------3---------------------------|
F#|-----2---2---2---------2-2-------2---2---2-----------2-------|
C#|-2h4h5-------4-------4-------0-4-5---4---4-------0-4-----0-4-|
G#|---------------------------0-------------0-----0-------0-----|
D#|-------------------------------------------------------------|

D#|---------------------------------------------------------|
A#|-----3---3-------------------3-------------------3-------|
F#|-2---2---2---------2-2-------2---2---2-------------------|
C#|-5-------4-------4-------0-4-5---4---4-------0-4-----0-4-|
G#|---------------0-------0-------------0-----0-------0-----|
D#|---------------------------------------------------------|

[Verse]
D#|---------------------------------------------------------|
A#|-3---3---3-----------3-------3-------------------3-------|
F#|-2---2---2---------2---------2---2---2-------------------|
C#|-5-------4-------4-------0-4-5---4---4-------0-4-----0-4-|
G#|-----------------------0-------------0-----0-------0-----|
D#|---------------------------------------------------------|

D#|---------------------------------------------------------|
A#|-3---3---3-----------3-------3-------------------3-------|
F#|-2---2---2---------2---------2---2---2-------------------|
C#|-5-------4-------4-------0-4-5---4---4-------0-4-----0-4-|
G#|---------------0-------0-------------0-----0-------0-----|
D#|---------------------------------------------------------|

D#|---------------------------------------------------------|
A#|-----3---3-------------------3---------------------------|
F#|-2---2---2---------2-2-------2---2---2-----------2-------|
C#|-5-------4-------4-------0-4-5---4---4-------0-4-----0-4-|
G#|---------------0-------0-------------0-----0-------0-----|
D#|---------------------------------------------------------|

D#|---------------------------------------------|
A#|---------------------------------------------|
F#|-4---6-------------<7>------4---6------------|
C#|-7---7---7---------<7>------7---7---7--------|
G#|---------9------0-------------------9--------|
D#|---------------------------------------------|

D#|---------------------------------------------------------|
A#|-----3---3-------------------3---------------------------|
F#|-2---2---2---------2-2-------2---2---2-----------2-------|
C#|-5-------4-------4-------0-4-5---4---4-------0-4-----0-4-|
G#|---------------0-------0-------------0-----0-------0-----|
D#|---------------------------------------------------------|

D#|---------------------------------------------------------|
A#|-----3---3-------------------3---------------------------|
F#|-2---2---2---------2-2-------2---2---2-----------2-------|
C#|-5-------4-------4-------0-4-5---4---4-------0-4-----0-4-|
G#|---------------0-------0-------------0-----0-------0-----|
D#|---------------------------------------------------------|

D#|---------------------------------------------------------|
A#|-----3---3-------------------3---------------------------|
F#|-2---2---2---------2-2-------2---2---2-----------2-------|
C#|-5-------4-------4-------0-4-5---4---4-------0-4-----0-4-|
G#|---------------0-------0-------------0-----0-------0-----|
D#|---------------------------------------------------------|

D#|--------------------------------------------------------------|
A#|--------------------------------------------------------------|
F#|-4---6-------------<7>------4---6---7--------7\--6------------|
C#|-7---7---7---------<7>------7---7---4--------7---7---7--------|
G#|---------9------0------------------------------------9--------|
D#|--------------------------------------------------------------|

[Chorus] (Chord storkes)
D#|-0-------2-------0-------2-------0---------|
A#|-3-------3-------3-------3-------3----3----|
F#|-2-------2-------2-------2-------2----2----|
C#|-0-------0-------0-------0-------0---------|
G#|--------------------------------------3----|
D#|-------------------------------------------|

D#|---------------------------------------------------------|
A#|-----3---3-----------3-------3-------------------3-------|
F#|-2---2---2-------------------2---2---2-------------------|
C#|-5-------4-------0-4-----0-4-----4---4-------0-4-----0-4-|
G#|---------------0-------0-------------------0-------0-----|
D#|---------------------------------------------------------|

[Verse]
D#|---------------------------------------------------------|
A#|-----3---3-----------3-------3-------------------3-------|
F#|-2---2---2-------------------2---2---2-------------------|
C#|-5-------4-------0-4-----0-4-5---4---4-------0-4-----0-4-|
G#|---------------0-------0-------------0-----0-------0-----|
D#|---------------------------------------------------------|

D#|---------------------------------------------------------|
A#|-----3---3-----------3-------3---------------------------|
F#|-2---2---2-------------------2---2---2-----------2-------|
C#|-5-------4-------0-4-----0-4-5---4---4-------0-4-----0-4-|
G#|---------------0-------0-------------0-----0-------0-----|
D#|---------------------------------------------------------|

D#|---------------------------------------------------------|
A#|-----3---3-----------3-------3---------------------------|
F#|-2---2---2-------------------2---2---2-----------2-------|
C#|-5-------4-------0-4-----0-4-5---4---4-------0-4-----0-4-|
G#|---------------0-------0-------------0-----0-------0-----|
D#|---------------------------------------------------------|

D#|---------------------------------------------|
A#|---------------------------------------------|
F#|-4---6-------------<7>------4---6---7--------|
C#|-7---7---7---------<7>------7---7---4--------|
G#|---------9------0----------------------------|
D#|---------------------------------------------|

[Chorus] (Chord storkes)
D#|-0-------2-------0-------2-------0---------|
A#|-3-------3-------3-------3-------3----3----|
F#|-2-------2-------2-------2-------2----2----|
C#|-0-------0-------0-------0-------0---------|
G#|--------------------------------------3----|
D#|-------------------------------------------|

    |->      Repeat       <-|
D#|-----------------------------|
A#|------.---------.--------.---|
F#|-4----6----4----6----4-4-6---|
C#|-2----4----2----4----2-2-4---|
G#|-----------------------------|
D#|-----------------------------|

   Guitar at CD time : 3'04"
D#|-12-10-9-9-10---12---10---9---12---10---9---10---12---10---9---|
A#|---------------------------------------------------------------|
F#|---------------------------------------------------------------|
C#|---------------------------------------------------------------|
G#|---------------------------------------------------------------|
D#|---------------------------------------------------------------|

    |->       Repeat      <-|
D#|-12--10--9--10--12--10---9---|
A#|-----------------------------|
F#|-----------------------------|
C#|-----------------------------|
G#|-----------------------------|
D#|-----------------------------|
|
D#|-----------------------------|
A#|-----------------------------|
F#|-9---7---6---7---9---7---6---|
C#|-----------------------------|
G#|-----------------------------|
D#|-----------------------------|
|
D#|-------------------5---------|
A#|-----------------7-----------|
F#|---------------7-------------|
C#|-----------------------------|
G#|-----------------------------|
D#|-----------------------------|

   Electric guitar at CD time : 3'22"
D#|--------------------------------------------------------------|
A#|------.----------.---------.---------.----------.---------.---|
F#|-4----6-----4----6-----4-4-6----4----6-----4----6-----4-4-6---|
C#|-2----4-x-x-2----4-x-x-2-2-4----2----4-x-x-2----4-x-x-2-2-4---|
G#|--------------------------------------------------------------|
D#|--------------------------------------------------------------|

                                      |->        Repeat       <-|
D#|-----------------------------------------------------------------|
A#|------.----------.-----10-10-10-10------.----------.---------.---|
F#|-4----6-----4----6------9--9--9--9-4----6-----4----6-----4-4-6---|
C#|-2----4-x-x-2----4-x-x--7--7--7--7-2----4-x-x-2----4-x-x-2-2-4---|
G#|-----------------------------------------------------------------|
D#|-----------------------------------------------------------------|

   Classical guitar at CD time : 3'46"
D#|---------------------------------------------------------|
A#|-----3---3-------------------3---------------------------|
F#|-2---2---2-----------2-------2---2---2-----------2-------|
C#|-5-------4-------0-4-----0-4-5---4---4-------0-4-----0-4-|
G#|---------------0-------0-------------0-----0-------0-----|
D#|---------------------------------------------------------|

D#|---------------------------------------------------------------------|
A#|-----3---3-------------------3-------------------------------3---3---|
F#|-2---2---2-----------2-------2---2---2-----------2-------2---2---2---|
C#|-5-------4-------0-4-----0-4-5---4---4-------0-4-----0-4-5-------4---|
G#|---------------0-------0-------------0-----0-------0-----------------|
D#|---------------------------------------------------------------------|

[Last Chorus]
D#|-0-------2-------0-------2-------0---------|
A#|-3-------3-------3-------3-------3----3----|
F#|-2-------2-------2-------2-------2----2----|
C#|-0-------0-------0-------0-------0---------|
G#|--------------------------------------3----|
D#|-------------------------------------------|


 * Legend *
/  = Slide up
\  = Slide down
h  = Hammer-on
p  = Pull-off
~  = Vibrato
.  = Staccato
 = Natural harmonic over ?th fret

            
            
Suggest correction
Creating personal tab
Creating personal tab
You can edit any tab online and save it as your Personal.

You can edit, replace or remove any tab part or add personal notes – all changes will be seen only by you.

Personal tabs can be accessed anytime from any device, even offline.
Learn more »
Give kudos to tab author, rate the tab!
1 2 3 4 5
comments
print report bad tab
guest
You may want to rate the tab now too:
select rating
Wanna post a correction for this tab? Suggest correction