Oops, an error
Loading. Please wait.

Blue Tab

150 views 1 this week
1 commentread comment
1 2 3 4 5
x 4
add to favorites
launch autoscroll
font size
0
reset
how to read this tab
guitar tuner
×
Best way to learn
"Blue"
Autoscroll
slow
fast
+/-
esc
set tempo
stop
Author
E-mail   : anusvorte@hotmail.com
Tuning   : 1 step down(1 flat)

Description: my first tab, but I know that it is correct...too bad nobody has
tabbed it before. enjoy it...remember, some places are very fast, so don't give
up if you don't get it right at once. Maybe there should be a few corrections in
the solo, but not many I think...plz rate 


Intro: you'll figure it out. Few variations...   a7
E|---------------------------------------------5-----------------|
B|---2-2-3-3-3-2-2-3---------------------------5-----------------|
G|---2-2-2-2-2-2-2-2---------------------------6-----------------|
D|---------------------------------------------5-----------------|
A|---------------------------------------------7-----------------|
E|---------------------------------------------5-----------------|


     Dm        d         dm        a7        dm        g   f
E|---5-5-5-5---6-6-6-6---5-5-5-5---5-5-5-5---5-5-5-5---3-3-1-1---|
B|---6-6-6-6---6-6-6-6---6-6-6-6---5-5-5-5---6-6-6-6---3-3-1-1---|
G|---7-7-7-7---7-7-7-7---7-7-7-7---6-6-6-6---7-7-7-7---4-4-2-2---|
D|---7-7-7-7---8-8-8-8---7-7-7-7---5-5-5-5---7-7-7-7---5-5-3-3---|
A|---5-5-5-5---8-8-8-8---5-5-5-5---7-7-7-7---5-5-5-5---5-5-3-3---|
E|-------------6-6-6-6-------------5-5-5-5-------------3-3-1-1---|


     A7
E|---5-5-5-5-5-5-5-5---------------------------------------------|
B|---5-5-5-5-5-5-5-5---------------------------------------------|
G|---6-6-6-6-6-6-6-6---------------------------------------------|
D|---5-5-5-5-5-5-5-5---------------------------------------------|
A|---7-7-7-7-7-7-7-7---------------------------------------------|
E|---5-5-5-5-5-5-5-5---------------------------------------------|


Verse:

       dm        d         dm        a7        dm        d
E|-----5-5-5-5---6-6-6-6---5-5-5-5---5-5-5-5---5-5-5-5---6-6-6-6-|
B|-----6-6-6-6---6-6-6-6---6-6-6-6---5-5-5-5---6-6-6-6---6-6-6-6-|
G|-----7-7-7-7---7-7-7-7---7-7-7-7---6-6-6-6---7-7-7-7---7-7-7-7-|
D|-----7-7-7-7---8-8-8-8---7-7-7-7---5-5-5-5---7-7-7-7---8-8-8-8-|
A|-----5-5-5-5---8-8-8-8---5-5-5-5---7-7-7-7---5-5-5-5---8-8-8-8-|
E|---------------6-6-6-6-------------5-5-5-5-------------6-6-6-6-|


       A7                                                           
E|-----5-5-5-5-5-5-5-5-------------------------------------------|
B|-----5-5-5-5-5-5-5-5-------------------------------------------|
G|-----6-6-6-6-6-6-6-6-------------------------------------------|
D|-----5-5-5-5-5-5-5-5-------------------------------------------|
A|-----7-7-7-7-7-7-7-7-------------------------------------------|
E|-----5-5-5-5-5-5-5-5-------------------------------------------|

Chorus:
     F           d               b           c#
E|---1-1-1-1-1---8--8--8—-8--8---6-6-6-6-6---9--9--9--9----------|
B|---2-2-2-2-2---9—-9--9—-9--9---6-6-6-6-6---10-10-10-10---------|
G|---1-1-1-1-1---8--8--8--8--8---7-7-7-7-7---9--9—-9--9----------|
D|---3-3-3-3-3---10-10-10-10-10--8-8-8-8-8---11-11-11-11---------|
A|---3-3-3-3-3---10-10-10-10-10--8-8-8-8-8---11-11-11-11---------|
E|---1-1-1-1-1---8—-8—-8-—8--8---6-6-6-6-6---9--9--9--9----------|

     F           d               a7
E|---1-1-1-1-1---8--8--8--8--8---5-5-5-5-5-5-5-5-5-5-------------|
B|---2-2-2-2-2---9--9--9--9--9---5-5-5-5-5-5-5-5-5-5-------------|
G|---1-1-1-1-1---8--8--8--8--8---6-6-6-6-6-6-6-6-6-6-------------|
D|---3-3-3-3-3---10-10-10-10-10--5-5-5-5-5-5-5-5-5-5-------------|
A|---3-3-3-3-3---10-10-10-10-10--7-7-7-7-7-7-7-7-7-7-------------|
E|---1-1-1-1-1---8--8--8--8--8---5-5-5-5-5-5-5-5-5-5-------------|



Solo:
E|---------------------------------------------------------------|
B|-10--10--------------------10-10--10-13-10-13-10-13-10---------|
G|-12^-12^-12-10----12-10----12^12^-------------------12^-12-10--|
D|---------------12-------12-------------------------------------|
A|---------------------------------------------------------------|
E|---------------------------------------------------------------|



E|-------------------------------13-8----------------------------|
B|-----------------15-----------------13-8-----------------------|
G|--14--12-14-12-14---12-14-12-14----------9-10-9^---------------|
D|12-----------------------------------------------12--10-12-----|
A|---------------------------------------------------------------|
E|---------------------------------------------------------------|



E|---------------------------------------------------------------|
B|-------------------------------------------------------10--10--|
G|---------------------------------------10--10--10-12-10--12----|
D|----10-----------------10--10--10-12-10--12--------------------|
A|-12----12-10--10-12-10---12------------------------------------|
E|---------------------------------------------------------------|



E|-----------10--10--13-12-8----13-12-8--------------------------|
B|-10-13-10----13------------13---------13--13-12----------------|
G|-----------------------------------------------15-14-12^^-12---|
D|---------------------------------------------------------------|
A|---------------------------------------------------------------|
E|---------------------------------------------------------------|



E|---------------------------------------------------------------|
B|----------------------------------------------------10---------|
G|-11-12-11---------------------10---10-12-10-12-10-12--12-------|
D|---------12--10-12-10-12-10-12--12-----------------------------|
A|---------------------------------------------------------------|
E|---------------------------------------------------------------|




E|-----------------10---------------------16-------15--15--15----|
B|10-13-10-13-10-13--13--13-16-13-16-16-13--13--13-18^^18^^18^^--|
G|---------------------------------------------------------------|
D|---------------------------------------------------------------|
A|---------------------------------------------------------------|
E|---------------------------------------------------------------|



Solo end:  dm  d  a7  dm  d  a7
E|---------5---6--5---5---6--5-----------------------------------|
B|---------6---6--5---6---6---5----------------------------------|
G|---------7---7--6---7---7----6---------------------------------|
D|---------7---8--5---7---8-----5--------------------------------|
A|---------5---8--7---5---8------7-------------------------------|
E|-------------6--5-------6-------5------------------------------|




-intro  1x
-verse  2x
-chorus 1x
-verse  2x
-chorus 2x 
-solo   1x
-verse  1x
-chorus 2x
-verse  2x
Suggest correction
comments
print report bad tab
1 comment total.
0 reply
pedro_008 10 Apr 07, 2006 12:16 PM

you suck

guest
You may want to rate the tab now too:
select rating
Wanna post a correction for this tab? Suggest correction