Oops, an error
Loading. Please wait.

All I Want Bass Tab

version 1
version 1

Whole song

Interactive

3,857 views 21 this week
no commentswrite comment
1 2 3 4 5
accurate
x 4
add to favorites
launch autoscroll
font size
0
reset
guitar tuner
Tab Pro tools
  • play this tab
  • loop segment
  • change instrument
  • show fretboard
  • metronome
Autoscroll
slow
fast
+/-
esc
set tempo
stop
Contributor
                            All I Want
                       Toad The Wet Sprocket

Verse:
|--------------|---------------|--------------|---------------|
|-0---0-0-0--2-|-3-------------|--------------|---------------|
|--------------|-----3---------|-3---3-3-3----|-0---0-0-0---0-|
|--------------|-------1-1---1-|------------3-|---------------|

|--------------|---------------|--------------|---------------|
|-0---0-0-0--2-|-3-------------|--------------|---------------|
|--------------|-----3---------|-3---3-3-3----|-0---0-0-----0-|
|--------------|-------1-1---1-|------------3-|---------------|

Refrain:
|---------------|--------------|--------------|-----------|
|-0-----0---0-2-|-3------------|--------------|-----------|
|-----0---0-----|-----3--------|-3---3-2------|-0---0---0-|
|---------------|-------1-1--1-|------------3-|-------0---|

|---------------|---------|-----|-----------|
|-0-----0h2-0-2-|---------|-----|---8-------|
|-----0---------|-0-0-----|-1-1-|-----8-5---|
|---------------|-------3-|-----|-6-------6-|

Chorus:
|-------------|-------------|-----7-5-----|-------4---|
|-----0-2-----|-----7-5-----|---------7-0-|-5-5-----5-|
|-3---------3-|-0-------8-7-|-5-----------|-----------|
|-------------|-------------|-------------|-----------|

|-------------|-------------|-----7-5-7---|--------------|----------|
|-----0-2-----|-----7-------|-------------|-------9------|----------|
|-3---------3-|-0-----7---0-|-5---------5-|-7-7-----7--7-|-8--------|
|-------------|-------------|-------------|--------------|----8---1-|

Interlude
|-------------|---------------|------------|--------------|
|-0--0----0-2-|-3-------------|------------|--------------|
|-------0-----|-----3---------|-3---3--3---|-0---0--------|
|-------------|--------1-1--1-|----------3-|--------4-2-0-|
Repeat Verse bass line
Repeat Refrain
Repeat Chorus

Bridge:
|-----------------|-----------------|---------------|
|-----------------|-----------------|-3-3-3-3-3---3-|
|-----------------|-----------------|-----------3---|
|-3-3-3-3-3-3-3-3-|-5-5-5-5-3-3-3-3-|---------------|

|-----------------|-----------------|-----------------|
|-----------------|-----------------|-----------------|
|-3-3-3-3---------|---------------0-|-3-3-3-3---------|
|---------3-3-3-3-|-1-1-1-1-1-1-1---|---------3-3-3-3-|


|-------------|-7-5-4-2-0-----|-----------------|-----------------|
|-----7-------|-------------0-|-3-3-3-3-3-3-3-3-|-----------------|
|-5-5---5---5-|---------------|-----------------|-----------------|
|-------------|---------------|-----------------|-1-1-1-1-1-1-1-1-|

Solo:
|----------------|--------------|----------------|-------------|
|-0-0---0----0-2-|-3------------|----------------|-------------|
|-----3----3-----|-----3--------|-3-3--0-3--2----|-0---0-------|
|----------------|-------1-1--1-|--------------3-|--------3--0-|

|------------------|-------------|----------------------|
|--------------3---|-------------|--------8-7-----------|
|------3-----3---3-|-0-0---------|------------8-5---8---|
|-1-1----1---------|-------5-3-5-|-6-6--6---------6---6-|

Chorus:
|-------------|-------------|-----7-5-7-5-|-------4-------|
|-----0-2-----|-----7-5-----|-------------|-5-5-5---5---5-|
|-3---------3-|-0-------8-7-|-5-----------|---------------|
|-------------|-------------|-------------|---------------|

|-------------|---------------|-----7-5-7-5-|-------4------|
|-----0-2-----|-----7---------|-------------|-5-5-5---5--5-|
|-3---------3-|-0-----0-----0-|-5-----------|--------------|
|-------------|---------------|-------------|--------------|

Coda:
|-------------|-------------|-----7-7----|-------4---------|
|-----0-2-----|-------5-----|----------7-|-5-5-5-----5-2-0-|
|-3---------3-|-0-0-----8-7-|-5----------|-----------------|
|-------------|-------------|------------|-----------------|

|-------------|-------------|-----7-5-0-7-|---------|-------------|
|-----0-2-----|-----7-5-----|-------------|---------|-------------|
|-3---------3-|-0-------8-7-|-5-----------|---------|-------------|
|-------------|-------------|-------------|-0---0---|-1-let ring--|

That's it guys. I spent almost one whole day tabbing this excellent
song using my Ibanez acoustic bass. I hope you'll enjoy. Can anyone
bass tab the song 'Til they take my heart away by Claire Marlo? Thanks
guys.

Tabbed by: Joaquin Alvarado 
Comments? Suggestions? Feel free to write me at durstmann@yahoo.com
comments
print report bad tab
I want to post or [tab]
guest
You may want to rate the tab now too:
select rating
Please do not post tabs as comments. Select "correction" instead!