Oops, an error
Loading. Please wait.

All In All Tab

994 views 1 this week
no commentswrite comment
1 2 3 4 5
please rate
add to favorites
launch autoscroll
font size
0
reset
how to read this tab
guitar tuner
Autoscroll
slow
fast
+/-
esc
set tempo
stop
Help us to improve Ultimate-Guitar.com Take our survey!
×
Capo
3rd fret
All In All                                      by Toad The Wet Sprocket

Transcribed By: Walter Tien (walter@nb.net)

Capo 3rd fret

|---6-----8-----6-----4--3-4-----|---6-----8-----6-----4--3-4-----|
|-6---6-----6----------------6---|-6---6-----6----------------6---|
|-3-----3-----3-----5----------3-|-3-----3-----3-----5----------3-|
|-3---------------3--------------|-3---------------3--------------|
|-5------------------------------|-5------------------------------|
|-6------------------------------|-6------------------------------|

|---6-----8-----6-----4--3-4-----|-6-6-----6-----6----------6-6-6-|
|-6---6-----6----------------6---|-6---6---6-----6----------6-6-6-|
|-3-----3-----3-----5----------3-|-3-----3-3-----3----------3-3-3-|
|-3---------------3--------------|-3-------3-----3----------3-3-3-|
|-5------------------------------|-5-------5-----5----------5-5-5-|
|-6------------------------------|-6-------6---6-6----------6-6-6-|

|---6-----8-----6-----4--3-4-----|---6-----8-----6-----4--3-4-----|
|-6---6-----6----------------6---|-6---6-----6----------------6---|
|-3-----3-----3-----5----------3-|-3-----3-----3-----5----------3-|
|-3---------------3--------------|-3---------------3--------------|
|-5------------------------------|-5------------------------------|
|-6------------------------------|-6------------------------------|

 all in all it's just as well     water moves, earth is still

|---6-----8-----6-----4--3-4-----|-6-6-----6-----6----------6-6-6-|
|-6---6-----6----------------6---|-6---6---6-----6----------6-6-6-|
|-3-----3-----3-----5----------3-|-3-----3-3-----3----------3-3-3-|
|-3---------------3--------------|-3-------3-----3----------3-3-3-|
|-5------------------------------|-5-------5-----5----------5-5-5-|
|-6------------------------------|-6-------6---6-6----------6-6-6-|

 time is slower still

|---6-----8-----6-----4--3-4-----|---6-----8-----6-----4--3-4-----|
|-6---6-----6----------------6---|-6---6-----6----------------6---|
|-3-----3-----3-----5----------3-|-3-----3-----3-----5----------3-|
|-3---------------3--------------|-3---------------3--------------|
|-5------------------------------|-5------------------------------|
|-6------------------------------|-6------------------------------|

 half an hour later is thirty days nothing moves at all this way

|---6-----8-----6-----4--3-4-----|-6-6-----6-----6----------------|
|-6---6-----6----------------6---|-6---6---6-----6----------3-5---|
|-3-----3-----3-----5----------3-|-3-----3-3-----3----------3-5---|
|-3---------------3--------------|-3-------3-----3----------3-5---|
|-5------------------------------|-5-------5-----5----------------|
|-6------------------------------|-6-------6---6-6----------------|

 hold on, I can wait

|-3--3--5-6-5------|----------------6-------------|
|-3--3--6------6---|-------4----------6-----------|
|-3--3--5--------5-|-----3----3--3------3---3-----|
|-5--5--3----------|---5---------3------------3---|
|-5--5-------------|-6-----------5--------5-----5-|
|-3--3-------------|-------------6----------------|

 life lives burning i am only just as much as i

|-3--3--5---5-5-|-------------------------|
|-3--3--6---6-6-|-4----4----3-------------|
|-3--3--5---5-5-|-3------3----3--3H5-3----|
|-5--5--3---3-3-|-5--5-----------------5--|
|-5--5----------|-6-----------------------|
|-3--3----------|-------------------------|

 can make myself

|-3--3--5-6-5------|----------------6-------------|
|-3--3--6------6---|-------4----------6-----------|
|-3--3--5--------5-|-----3----3--3------3---3-----|
|-5--5--3----------|---5---------3------------3---|
|-5--5-------------|-6-----------5--------5-----5-|
|-3--3-------------|-------------6----------------|

 and i lie burning  life is only just a part of it

|-3--3--5---5-5-|-------------------------|
|-3--3--6---6-6-|-4-4-----4------6-----6--|
|-3--3--5---5-5-|-3---3--------3---3------|
|-5--5--3---3-3-|-5-----5----5-------5----|
|-5--5----------|-6-----------------------|
|-3--3----------|-------------------------|

 I can't help myself

|---6-----8-----6-----4--3-4-----|---6-----8-----6-----4--3-4-----|
|-6---6-----6----------------6---|-6---6-----6----------------6---|
|-3-----3-----3-----5----------3-|-3-----3-----3-----5----------3-|
|-3---------------3--------------|-3---------------3--------------|
|-5------------------------------|-5------------------------------|
|-6------------------------------|-6------------------------------|

 all in all it's just the sun     catch the wind, hold it down

|---6-----8-----6-----4--3-4-----|---6-----6-----6--6-----6-----|
|-6---6-----6----------------6---|-6---6-----6---6----6-----6---|
|-3-----3-----3-----5----------3-|-3-----3-----3--------3-----3-|
|-3---------------3--------------|-3----------------------------|
|-5------------------------------|-5----------------------------|
|-6------------------------------|-6----------------------------|

 cold when evening comes                                (and evening comes)

|---6-----8-----6-----4--3-4-----|---6-----8-----6-----4--3-4-----|
|-6---6-----6----------------6---|-6---6-----6----------------6---|
|-3-----3-----3-----5----------3-|-3-----3-----3-----5----------3-|
|-3---------------3--------------|-3---------------3--------------|
|-5------------------------------|-5------------------------------|
|-6------------------------------|-6------------------------------|

 all in all it's just as well     catch the river, make it still

|---6-----8-----6-----4--3-4-----|-6-6-----6-----6----------------|
|-6---6-----6----------------6---|-6---6---6-----6----------3-5---|
|-3-----3-----3-----5----------3-|-3-----3-3-----3----------3-5---|
|-3---------------3--------------|-3-------3-----3----------3-5---|
|-5------------------------------|-5-------5-----5----------------|
|-6------------------------------|-6-------6---6-6----------------|

 water turns the mill

|-3--3--5-6-5------|----------------6-------------|
|-3--3--6------6---|-------4----------6-----------|
|-3--3--5--------5-|-----3----3--3------3---3-----|
|-5--5--3----------|---5---------3------------3---|
|-5--5-------------|-6-----------5--------5-----5-|
|-3--3-------------|-------------6----------------|

 life lives burning i am only just as much as i

|-3--3--5---5-5-|-------------------------|
|-3--3--6---6-6-|-4----4----3-------------|
|-3--3--5---5-5-|-3------3----3--3H5-3----|
|-5--5--3---3-3-|-5--5-----------------5--|
|-5--5----------|-6-----------------------|
|-3--3----------|-------------------------|

 can help myself

|-3--3--5-6-5------|----------------6-------------|
|-3--3--6------6---|-------4----------6-----------|
|-3--3--5--------5-|-----3----3--3------3---3-----|
|-5--5--3----------|---5---------3------------3---|
|-5--5-------------|-6-----------5--------5-----5-|
|-3--3-------------|-------------6----------------|

 and i lie burning  life is only just a part of it

|-3--3--5---5-5-|-------------------------|
|-3--3--6---6-6-|-4-4-----4------6-----6--|
|-3--3--5---5-5-|-3---3--------3---3------|
|-5--5--3---3-3-|-5-----5----5-------5----|
|-5--5----------|-6-----------------------|
|-3--3----------|-------------------------|

 I can't help myself

|---6-----8-----6-----4--3-4-----|---6-----8-----6-----4--3-4-----|
|-6---6-----6----------------6---|-6---6-----6----------------6---|
|-3-----3-----3-----5----------3-|-3-----3-----3-----5----------3-|
|-3---------------3--------------|-3---------------3--------------|
|-5------------------------------|-5------------------------------|
|-6------------------------------|-6------------------------------|

 all in all it's just as well     water moves and earth is still

|---6-----8-----6-----4--3-4-----|---6-----6-----6--6-----6-----|
|-6---6-----6----------------6---|-6---6-----6---6----6-----6---|
|-3-----3-----3-----5----------3-|-3-----3-----3--------3-----3-|
|-3---------------3--------------|-3----------------------------|
|-5------------------------------|-5----------------------------|
|-6------------------------------|-6----------------------------|

 time is slower still                            (thirty days)

|---6-----8-----6-----4--3-4-----|---6-----8-----6-----4--3-4-----|
|-6---6-----6----------------6---|-6---6-----6----------------6---|
|-3-----3-----3-----5----------3-|-3-----3-----3-----5----------3-|
|-3---------------3--------------|-3---------------3--------------|
|-5------------------------------|-5------------------------------|
|-6------------------------------|-6------------------------------|

 half an hour later is thirty days nothing moves at all this way

|---6-----8-----6-----4--3-4-----|-6-6-----6-----6----------6-6-6-|
|-6---6-----6----------------6---|-6---6---6-----6----------6-6-6-|
|-3-----3-----3-----5----------3-|-3-----3-3-----3----------3-3-3-|
|-3---------------3--------------|-3-------3-----3----------3-3-3-|
|-5------------------------------|-5-------5-----5----------5-5-5-|
|-6------------------------------|-6-------6---6-6----------6-6-6-|

 hold on, I can wait                              but i can't wait

|---6-----8-----6-----4--3-4-----|---6-----8-----6-----4--3-4-----|
|-6---6-----6----------------6---|-6---6-----6----------------6---|
|-3-----3-----3-----5----------3-|-3-----3-----3-----5----------3-|
|-3---------------3--------------|-3---------------3--------------|
|-5------------------------------|-5------------------------------|
|-6------------------------------|-6------------------------------|

             hey now                     hey, hey now

|---6-----8-----6-----4--3-4-----|-6-6-----6-----6----------6-6-6-|
|-6---6-----6----------------6---|-6---6---6-----6----------6-6-6-|
|-3-----3-----3-----5----------3-|-3-----3-3-----3----------3-3-3-|
|-3---------------3--------------|-3-------3-----3----------3-3-3-|
|-5------------------------------|-5-------5-----5----------5-5-5-|
|-6------------------------------|-6-------6---6-6----------6-6-6-|

             but i can't wait               i can't help myself

|---6-----8-----6-----4--3-4-----|---6-----8-----6-----4--3-4-----|
|-6---6-----6----------------6---|-6---6-----6----------------6---|
|-3-----3-----3-----5----------3-|-3-----3-----3-----5----------3-|
|-3---------------3--------------|-3---------------3--------------|
|-5------------------------------|-5------------------------------|
|-6------------------------------|-6------------------------------|

                                                      (self)

|---6-----8-----6-----4--3-4-----|-6-6-----6-----6----------6-6-6-|
|-6---6-----6----------------6---|-6---6---6-----6----------6-6-6-|
|-3-----3-----3-----5----------3-|-3-----3-3-----3----------3-3-3-|
|-3---------------3--------------|-3-------3-----3----------3-3-3-|
|-5------------------------------|-5-------5-----5----------5-5-5-|
|-6------------------------------|-6-------6---6-6----------6-6-6-|

              i can't wait

|---6-----8-----6-----4--3-4-----|---6-----8-----6-----4--3-4-----|
|-6---6-----6----------------6---|-6---6-----6----------------6---|
|-3-----3-----3-----5----------3-|-3-----3-----3-----5----------3-|
|-3---------------3--------------|-3---------------3--------------|
|-5------------------------------|-5------------------------------|
|-6------------------------------|-6------------------------------|

                          hey now                       hey, hey now

|---6-----8-----6-----4--3-4-----|-6-----------------------|
|-6---6-----6----------------6---|-6-----------------------|
|-3-----3-----3-----5----------3-|-3-----------------------|
|-3---------------3--------------|-3-----------------------|
|-5------------------------------|-5-----------------------|
|-6------------------------------|-6-----------------------|

                          i can't wait                          hey now

|---6-----8-----6-----4--3-4-----|---6-----8-----6-----4--3-4-----|
|-6---6-----6----------------6---|-6---6-----6----------------6---|
|-3-----3-----3-----5----------3-|-3-----3-----3-----5----------3-|
|-3---------------3--------------|-3---------------3--------------|
|-5------------------------------|-5------------------------------|
|-6------------------------------|-6------------------------------|


|---6-----8-----6-----4--3-4-----|---6-----6-----6--6-----6-----|
|-6---6-----6----------------6---|-6---6-----6---6----6-----6---|
|-3-----3-----3-----5----------3-|-3-----3-----3--------3-----3-|
|-3---------------3--------------|-3----------------------------|
|-5------------------------------|-5----------------------------|
|-6------------------------------|-6----------------------------|


|---6-----8-----6-----4--3-4-----|---6-----8-----6-----4--3-4-----|
|-6---6-----6----------------6---|-6---6-----6----------------6---|
|-3-----3-----3-----5----------3-|-3-----3-----3-----5----------3-|
|-3---------------3--------------|-3---------------3--------------|
|-5------------------------------|-5------------------------------|
|-6------------------------------|-6------------------------------|


|---6-----8-----6-----4--3-4-----|---6-----6--8-8-6-6-|
|-6---6-----6----------------6---|-6---6---6--6-6-6-6-|
|-3-----3-----3-----5----------3-|-3-----3-3--3-3-3-3-|
|-3---------------3--------------|-3-------3--3-3-3-3-|
|-5------------------------------|-5-------5--5-5-5-5-|
|-6------------------------------|-6-------6--6-6-6-6-|


 
Suggest correction
Give kudos to tab author, rate the tab!
1 2 3 4 5
comments
print report bad tab
guest
You may want to rate the tab now too:
select rating
Please do not post tabs as comments. Select "correction" instead!