Oops, an error
Loading. Please wait.

Come Back Down Tab

1,980 views 1 this week
no commentswrite comment
1 2 3 4 5
please rate
add to favorites
launch autoscroll
font size
0
reset
how to read this tab
guitar tuner
Tab Pro tools
  • play this tab
  • loop segment
  • change instrument
  • show fretboard
  • metronome
Autoscroll
slow
fast
+/-
esc
set tempo
stop
Come Back Down
transcribed by Mike Nidel (man146@psu.edu)
revised by Travis Brigden (buddenbaum@aol.com)
|--------0-----|-------------|-----0-----|-----3----|-0----2------|
|----3-----3---|-3---3-------|-3-----3---|-3-0---3--|---3----3----|
|------2-----0-|---0---3-----|---2-----0-|--------0-|----------0--|
|----0---------|---------0---|-0---------|----------|-------------|
|--------------|-----3-------|-----------|-----3----|------2------|
|--------------|-3-----------|-----------|-3--------|-0-----------|
I've come here a 1000... some things....             yes i will....
|------0------|-0----2----------|--------0--------|
|-3-------3---|----3-------3----|-3-----------3---|
|----0------0-|--------------0--|-----0---------0-|
|-------------|-----------------|-----------------|
|-3-----------|------2----------|-3---------------|         
|-------------|-0---------------|-----------------|
                anything you say
|--------0-----|-------------|-----0-----|-----3----|-0----2------|
|----3-----3---|-3---3-------|-3-----3---|-3-0---3--|---3----3----|
|------2-----0-|---0---3-----|---2-----0-|--------0-|----------0--|
|----0---------|---------0---|-0---------|----------|-------------|
|--------------|-----3-------|-----------|-----3----|------2------|
|--------------|-3-----------|-----------|-3--------|-0-----------|
I've quit this a million... can't quite....      just one more time
|------0------|-0----2----------|------0------|-0------0-----|
|-3-------3---|----3-------3----|-3-------3---|---5------5---|
|----0------0-|--------------0--|----0------0-|-----0------0-|
|-------------|-----------------|-------------|--------------|
|-3-----------|------2----------|-3-----------|-4------------|         
|-------------|-0---------------|-------------|--------------|
                   i'll be OK          but i'm
|-5-----5---------|---------0-------|--------------------|
|-------------5---|-3-----------3---|-3------------------|
|----0----------0-|------2--------2-|--------------------|
|-----------------|-0---------------|--------------------|
|-4---------------|-----------------|--------------------|
|-----------------|-----------------|--------------------|
        so damn tired                   When I come back
G  Cadd9 
down
D        Cadd9    G  Cadd9  D  Cadd9
Though i'm crazy to
Em  Bm           Cadd9          Em  Bm   Cadd9   D
Anything you want from me i'll do
                                (4)|-------0-|
                                (5)|---0h2---|
(let D ring here)               (6)|-3-------|
when i come back                   down...

|--------0-----|-------------|-----0-----|-----3----|-0----2------|
|----3-----3---|-3---3-------|-3-----3---|-3-0---3--|---3----3----|
|------2-----0-|---0---3-----|---2-----0-|--------0-|----------0--|
|----0---------|---------0---|-0---------|----------|-------------|
|--------------|-----3-------|-----------|-----3----|------2------|
|--------------|-3-----------|-----------|-3--------|-0-----------|
Hey Joe,         could you...  I could...             what a laugh
|------0------|-0----2----------|--------0-------|
|-3-------3---|----3-------3----|-3----------3---|
|----0------0-|--------------0--|------0-------0-|
|-------------|-----------------|----------------|
|-3-----------|------2----------|-3--------------|         
|-------------|-0---------------|----------------|
                one more fool
|--------0-----|-------------|-----0-----|-----3----|-0----2------|
|----3-----3---|-3---3-------|-3-----3---|-3-0---3--|---3----3----|
|------2-----0-|---0---3-----|---2-----0-|--------0-|----------0--|
|----0---------|---------0---|-0---------|----------|-------------|
|--------------|-----3-------|-----------|-----3----|------2------|
|--------------|-3-----------|-----------|-3--------|-0-----------|
 two hours...    back...  lapping at...               stop yelling
|------0------|-0----2----------|------0------|-0------0-----|
|-3-------3---|----3-------3----|-3-------3---|---5------5---|
|----0------0-|--------------0--|----0------0-|-----0------0-|
|-------------|-----------------|-------------|--------------|
|-3-----------|------2----------|-3-----------|-4------------|         
|-------------|-0---------------|-------------|--------------|
                  i'll get through      but i'm... 
|-5-----5---------|---------0-------|--------------------|
|-------------5---|-3-----------3---|-3------------------|
|----0----------0-|------2--------2-|--------------------|
|-----------------|-0---------------|*0*-----------------| *0* is only played
|-4---------------|-----------------|--------------------|  the last time.
|-----------------|-----------------|--------------------|
        so damn tired                   When I come back
G      Cadd9 
down
D        Cadd9    G  Cadd9  D  Cadd9
Though i'm crazy to
Em  Bm          Cadd9           Em   Bm      Cadd9    D
Anything you want from me i'll do             
G    Cadd9          D
   When I come back down
G    Cadd9          D
   When I come back down
G    Cadd9          Em  Bm  Cadd9
   when i come back down
(repeat 1st section of TAB here)
I've come here a thousand times
some things never change
lay me down;
take me away
oh, god; i'm so damn tired...
(mandolin plays here)
When i come back down
though i'm crazy to
anything you want from me i'll do
when i come back down
come back down...


 
comments
We did not receive enough feedback on this tab! Please rate:
print report bad tab
1 2 3 4 5
I want to post or [tab]
guest
You may want to rate the tab now too:
select rating
Please do not post tabs as comments. Select "correction" instead!