Oops, an error
Loading. Please wait.

Fly From Heaven Tab

4,844 views 1 this week
no commentswrite comment
1 2 3 4 5
please rate
add to favorites
launch autoscroll
font size
0
reset
how to read this tab
guitar tuner
Tab Pro tools
  • play this tab
  • loop segment
  • change instrument
  • show fretboard
  • metronome
×
Best way to learn
"Fly From Heaven"
Autoscroll
slow
fast
+/-
esc
set tempo
stop
#----------------------------------PLEASE NOTE---------------------------------#
#This file is the author's own work and represents their interpretation of the #
#song. You may only use this file for private study, scholarship, or research. #
#------------------------------------------------------------------------------##
From: PopSong917@aol.com
Date: Fri, 6 Oct 1995 16:29:45 -0400
Subject: toad the wet sprocket "Fly From Heaven"

FLY FROM HEAVEN
toad the wet sprocket


done by: Bob (PopSong917@aol.com)


E
Paul is making me nervous, Paul is making me scared
         A                                                   E
Walk into this room and swaggers like he's God's own messenger
E
Change the name of my brother, change the things that he said
         A                             E
Says that he speaks to him, but he never even knew the man
But I'd give my life for him

C#
Like water through my hands
A
You'd give him any ending
B
But if he's all you say
C#                                  A
Would he fly from heaven to this world again?
B
To this world again?

(Bridge:

A (Arpeggiate)

D/E

e------------------------------|
B-9-------7--------------------|
G---9---------------9----------|
D------9-----9/11-----11--9----|
A------------------------------|
E------------------------------|

E
Take whatever you're needing, take whatever you can
A                                       E
We are broken from within, run to another land

C#
Water through my hands
A
Or is it just beginning?
B
But if he's all you say
C#                                  A
Would he fly from heaven to this world again?
B
To this world again?

(Bridge)

E
They took my brother, they ripped him from me
To twist his words as they did his body
D
Denied his family, denied his beauty
A
To lay him down at the feet of those he couldn't save
G  F#  E (x3)
Couldn't save, couldn't save

C#
Will it be the end?
A
Or is he still ascending?
B
But if's he all you say
C#                                               A
Would he fly from heaven to this world again?
B
To this world again?


"You guys are the hemroids on the ass of life"
A local retard on the Lenape X-C team
(A.K.A. Pigeon, Eggbert, etc.)

From: jl@student.umass.edu
Date: Sun, 09 Jul 1995 17:43:52 -0400
Subject: Toad the Wet Sprocket: "Fly From Heaven"

Fly From Heaven

by Toad the Wet Sprocket

Transcribed by James M Lawrence (jl@student.umass.edu)

        E A D G B E
Esus2   0 2 2 1 0 2
E7      0 2 0 1 3 4
E6      0 2 2 1 2 x
F#sus4  2 4 4 4 2 2
G       3 5 5 4 3 3

intro
E     E     E     E

1st verse
E     E     E     E
A     A     Esus2 E

2nd verse
Esus2 E     Esus2 E
A     A     Esus2 E

Chorus
C#m   A     B     B
C#m   A     B     B
A     A     E     E
Esus2 E

3rd verse
E     E     E     E
A     A     Esus2 E

chorus

bridge
E     E     E     E
E7    E7    E6    E6
E     E     A     A
D     D     A     A
G     F#sus4  E   E
G     F#sus4  E   E
G     A

chorus
C#m   A     B     B   (repeat)

(end of bridge)
E]---3------------2------------0------0--2--0-------------------|
B]---3-----3--5---2-----3--2---0---3-----------3--0-------------|
G]---4---4--------4---4--------1--------------------------------|
D]---5------------4------------2--------------------------------|
A[---5------------4------------2--------------------------------|
E]---3------------2------------0--------------------------------|
                                                couldn't save...

E]---3------------2------------0---2--0-------------------------|
B]---3-----3--5---2-----3--2---0---------10--9--7---------------|
G]---4---4--------4---4--------1---------9---------9------------|
D]---5------------4------------2---------9----------------------|
A[---5------------4------------2---------7----------------------|
E]---3------------2------------0---------7----------------------|
                                                couldn't save...

E]---3------------0----|
B]---3-----3--5---2----|
G]---4---4--------2----|
D]---5------------2----|
A[---5------------0----|
E]---3-----------------|
comments
We did not receive enough feedback on this tab! Please rate:
print report bad tab
1 2 3 4 5
I want to post or [tab]
guest
You may want to rate the tab now too:
select rating
Please do not post tabs as comments. Select "correction" instead!