Oops, an error
Loading. Please wait.

I Will Not Take These Things For Granted Chords

5,129 views 12 this week
no commentswrite comment
1 2 3 4 5
x 3
add to favorites
launch autoscroll
font size
0
reset
transpose
0
reset
simplify chords
display chords
guitar tuner
Autoscroll
slow
fast
+/-
esc
set tempo
stop
Help us to improve Ultimate-Guitar.com Take our survey!
×
Author
Difficulty
Tuning
Capo
novice
E A D G B E
2nd fret
Capo 2

F               
One part of me
                     G          F
Wants to tell you everything
                        G
One part just needs the quiet
              F
And if I’m lonely here
        G
And only here
                F
And on the telephone
                E
You offer reassurance

C                               G
I will not take these things for granted
C           D           G
I will not take these things…

F
How can I hold a part of me…
                  G
That only you can carry
F                             G
It needs a strength I haven’t found
            F
But if it’s frightening
              G
I’ll bear the cold
            F
And on the telephone
               E
You offer warm asylum

Pre-chorus:
A
I’m listening
A/F#            E
Flowers in the garden
                A
Laughter in the halls
A/F#            G
Children in the park

Chorus:
C                               G
I will not take these things for granted
C                               G
I will not take these things for granted
C                               G
I will not take these things for granted
C           D                G        F
I will not take these things…anymore 
 
   F
To crawl inside the wire
                   G
And feel something near me
F               G
To feel this accepting
           F
That it is lonely here
         G
But not alone
           F
But on the telephone
            E
You offer visions dancing

Pre-chorus:
A
I’m listening
             E
Music in the bedroom
                A
Laughter in the hall
                E
Diamonds in the ocean
               A
Singing by the fire
                    E
Running through the forest
                A
Standing in the wind
               G
Rolling canyons

Chorus:
C                               G
I will not take these things for granted
C                               G
I will not take these things for granted
C                               G
I will not take these things for granted
C           D                G        F
I will not take these things…anymore 

Instrumental:  ||: FAmCG :||


||: FAmCG :||
I will not take these things for granted…

Riff over ending chords
e|---------------------------------------------------------------------------|3X
B|-------0--1--0--1--0--3--1-------------------------------------------------|
G|-0--2----------------------------------------------------------------------|
D|---------------------------------------------------------------------------|
A|---------------------------------------------------------------------------|
E|---------------------------------------------------------------------------|

e|---------------------------------------------------------------------------|
B|-------0--1--0--1--0--3--1--0--1--0----------------------------------------|
G|-0--2--------------------------------0-------------------------------------|
D|---------------------------------------------------------------------------|
A|---------------------------------------------------------------------------|
E|---------------------------------------------------------------------------|
Suggest correction
Give kudos to tab author, rate the tab!
1 2 3 4 5
comments
print report bad tab
guest
You may want to rate the tab now too:
select rating
Wanna post a correction for this tab? Suggest correction