Oops, an error
Loading. Please wait.

Windmills Tab

version 1
version 1

Whole song

Interactive

9,143 views 18 this week
1 commentread comment
1 2 3 4 5
excellent!
x 5
add to favorites
launch autoscroll
font size
0
reset
how to read this tab
guitar tuner
Tab Pro tools
  • play this tab
  • loop segment
  • change instrument
  • show fretboard
  • metronome
Autoscroll
slow
fast
+/-
esc
set tempo
stop
Contributor
Difficulty
Tuning
novice
D A D G B E
-------------------------------------------------------------------------------
                             WINDMILLS - Toad the Wet Sprocket
-------------------------------------------------------------------------------
Tabbed by: ToledoDan
Email: toledodan@gmail.com

Tuning: Drop-D, Capo 2nd Fret


Intro - (Repeat 4x)
|----------------|
|--3-------3-----|
|------0-------0-|
|----4-------4---|
|----------------|
|--0-----0-------|

Intro (cont.) - (Play 2x)
|-----------------------------------------------------0------|
|--3-------3------3-------3-----3-------3-----3---------3----|
|------0-------0------0-------0-----0-------0-----0-------2--|
|----4-------4------4-------4-----4-------4-----4------------|
|-----------------------0-------2-----2-------0-----0--------|
|--0-----0--------5------------------------------------------|


Verse 1 (Play 2x)
|-----------------------------------------------------0------|
|--3-------3------3-------3-----3-------3-----3---------3----|
|------0-------0------0-------0-----0-------0-----0-------2--|
|----4-------4------4-------4-----4-------4-----4------------|
|-----------------------0-------2-----2-------0-----0--------|
|--0-----0--------5------------------------------------------|


Chorus 1 (Play 2x)
|------3--2--0--|
|------3--3--2--|
|----0----2--2--|
|--4------4--2--|
|---------------|
|---------------|


Verse 2 (Same as Verse 1)


Chorus 2(A) (Play 3x) Chorus B (Play 1x)
|--------3--2--0----|--------3--2--0--3----|
|--------3--3--2----|--------3--3--2--0----|
|------0----2--2----|------0----2--2--0----|
|----4------4--2----|----4------4--2--0----|
|-------------------|----------------------|
|-------------------|----------------------|


Bridge
|---------------------------------------------------|
|--------------------------0-----0-----3-----3------|
|--4-----4-----3-----3-------1-----1-----4-----4----|
|----4-----4-----4-----4-------2-----2-----5-----5--|
|------5-----5-----5-----5--------------------------|
|---------------------------------------------------|

Bridge (cont.)
|---------------------------------------1--3--|
|--------------2-----2-----3-----3------1--4--|
|--4-----4-------2-----2-----3-----3----2--3--|
|----4-----4-------2-----2-----3-----3--3--5--|
|------5-----5--------------------------3--6--|
|---------------------------------------------|


Instrument Fill - (Play Verse 1x)


Verse 3 - (Same as Verse 1)

Chorus 3 (Same as Chorus 2)

Instrument Fill - (Play Verse)

Outtro - (Repeat first bar of Intro 8x)


| /  slide up
| \  slide down
| h  hammer-on
| p  pull-off
| ~  vibrato
| +  harmonic
| x  Mute note
===============================================================================
comments
print report bad tab
1 comment total.
0 reply
jhansen wrote on December 27 2010, 11:21 am

awesome tab, so fun to play 5 stars. Great job

I want to post or [tab]
guest
You may want to rate the tab now too:
select rating
Please do not post tabs as comments. Select "correction" instead!