Oops, an error
Loading. Please wait.

Animals Bass

by Toadies
467 views 1 this week
no commentswrite comment
1 2 3 4 5
3 more votes to show rating
add to favorites
launch autoscroll
font size
0
reset
guitar tuner
×
Best way to learn
"Animals"
Autoscroll
slow
fast
+/-
esc
set tempo
stop
Author
Difficulty
novice
Animals by The Toadies, Bass Tab
My first tab, feel free to correct any mistakes, I'm no expert 



Intro (once the drums kick in)

G--------------------||
D--------------------|| x4
A--------------------||
E-0---3---0---3---5h6||

Verse (once the vocals kick in)

G--------------------||     G-------------------------------------------||
D--------------------||x2   D-------------------------------------------||
A--------------------||     A-------------------------------------------||
E-0---3---0---3---5h6||     E-0---3---0---3---5h6-7--10--7-5h7-10-11-12\||
    
                 Repeat twice and then

G----------------------------------------||
D----------------------------------------||
A----------------------------------------||
E-0---3---0---3---5h6-7--10--7-5h7--10--3||

        Pre-chorus

G--------------------------------------------------------------------------------||
D--------------------------------------------------------------------------------||
A--------------------------------------------------------------------------------||
E-5-5-5-55--5-5-5-55--0-0-3-5h6-0-0-3-5h6-5-5-5-55--5-5-5-55--0-0-3-5h6-7-7-10-11||


    Chorus

G------------------------------------------||
D------------------------------------------|| x2
A------------------------------------------||
E-0-0-3-5-6-5-3-5h6-0-12-00-5h6-0-12-00-5h6||


       Repeat intro and verse

   Pre-chorus#2

G-----------------------------------------------------------||  G----------||
D-----------------------------------------------------------||  D----------|| X7
A-----------------------------------------------------------||  A----------||
E-5-5-5-55--5-5-5-55--0-0-3-5h6-0-0-3-5h6-5-5-5-55--5-5-5-55||  E-0-0-3-5h6||

G----------||
D----------||
A----------||
E-7-7-11-11||


           Repeat Chorus twice



       Repeat intro throughout the ending, on the sixth repeat it does something like this

G------------------------||
D------------------------||
A------------------------||
E-00000033333300000333556||
Suggest correction
Give kudos to tab author, rate the tab!
1 2 3 4 5
comments
print report bad tab
guest
You may want to rate the tab now too:
select rating
Wanna post a correction for this tab? Suggest correction