Oops, an error
Loading. Please wait.

Dollskin Tab

version 1
version 1

Whole song

1,696 views 6 this week
no commentswrite comment
1 2 3 4 5
please rate
add to favorites
launch autoscroll
font size
0
reset
how to read this tab
guitar tuner
Autoscroll
slow
fast
+/-
esc
set tempo
stop
Help us to improve Ultimate-Guitar.com Take our survey!
×
Song:dollskin
By: the toadies
tabber: bighabit69@iamwasted.com

Tap on the body of the guitar while holding an E chord
to get that ringing sound.


Let this note ring.then...
e---12~~~------------------------------

e-------------------------------------------------------------
B-------------------------------------------------------------
G--------------------6----------------------------6-----------
D--2-2-2-2-2-2-2--6--6--7-7-7--/9-9-9-9-9-9-xx-7--6--xx6-6-6--
A--2-2-2-2-2-2-2--6--4--7-7-7-/-9-9-9-9-9-9-xx-7--4--xx6-6-6--
E--0-0-0-0-0-0-0--4-----5-5-5/--7-7-7-7-7-7-xx-5-----xx4-4-4--

Before "catch that light..."
e--------------0-0-0----------------
B--------------0-0-0----------------
G---6-6---4-4--1-1-1----------------
D---6-6---4-4--2-2-2----------------
A---4-4---2-2--2-2-2----------------
E--------------0-0-0----------------First solo
e----------------------------------------------------------------
B----------------------------------------------------------------
G---8-9-8-9-11-9--4-6-8-6~~---8-9-11-9-8----8---8------8---------
D----------------------------------------11---9---6--6-----------
A---------------------------------------------------------6-9-7--
E----------------------------------------------------------------

B----------------------------------------------------------------
G---8-9-8-9-11-9--4-6-8-6~~--8-9-11--13-14-13--16-13--14-13------
D----------------------------------------------------------------
A----------------------------------------------------------------
E----------------------------------------------------------------

G---------------
D---------------
A--6-7-6-9-7~~~-
E---------------

Just before "I hate these walls..."
e-12-------------------------------------------------------------
B----------------------------------------------------------------
G-----8-9-8-9-9-8b(dive)--8-9-8--------------8-9-8-9-9-8b(dive)--
D-------------------------------9b-6b(dive)----------------------
A----------------------------------------------------------------
E----------------------------------------------------------------

e---------------------------------------------------------------
B---------------------------------------------------------------
G--8-9-11--13-14-13--16-13--14-13---14-13-----------------------
D-----------------------------------------14-13-----------------
A-----------------------------------------------14-13-12--------
E---------------------------------------------------------------

e-----------------------------------------------12B--------------
B----------------------------------------------------------------
G---------------------------------------11B--9-------------------
D--11-9-11-14-11----------11-9-11-14-11---------------11-9-11-14-
A----------------11--9-7-----------------------------------------
E----------------------------------------------------------------

e----------------------------------------
B----------------------------------------
G----------------------------------------
D--11------------------------------------
A-----11---------------------------------
E----------------------------------------

Before bridge, before "now it's over"
e------------------------------------------------
B------------------------------------------------
G------------------------------------------------
D-(let this 7 ring for a while)------------------
A--7--------11~--12-14---11h12--14---14p12-------
E-------------------------------------------14~--
Suggest correction
Give kudos to tab author, rate the tab!
1 2 3 4 5
comments
print report bad tab
guest
You may want to rate the tab now too:
select rating
Please do not post tabs as comments. Select "correction" instead!