Oops, an error
Loading. Please wait.

Dollskin Tab

version 2
version 2

Whole song

4,733 views 6 this week
1 commentread comment
1 2 3 4 5
excellent!
x 4
add to favorites
launch autoscroll
font size
0
reset
how to read this tab
guitar tuner
Tab Pro tools
  • play this tab
  • loop segment
  • change instrument
  • show fretboard
  • metronome
×
Best way to learn
"Dollskin"
Autoscroll
slow
fast
+/-
esc
set tempo
stop
Contributor
                                  "Dollskin"
                                by The Toadies

Tabbed by megaderrick
email: megaderrick@yahoo.com

h= hammer, p=pull, ~= vibrato, /,\= slide up or down, b= bend

This is the last track on Hell Below/Stars Above, and it's probably the best
song on the cd. There's 2 guitarists here, and both guitars tune standard, EADGBe. 


Guitar 1 (Todd): 

Start out the song holding an open E chord(0-2-2-1-0-0) and knock on the body of
the guitar, making that cool ringing sound. Listen to the song to get the timing and such. 
Here's the main part of the song, played gently (slightly muted too)for the first
half of the verse and normal for the second half:
e----------------------------------------------------------------------------
B----------------------------------------------------------------------------
G-----------------------6-6-------------------------------6-6----------------
D-----2-2-2-2-2-2-2/-6--6-6-7-7----7-7/-9-9-9-9-9-9-9\-7--6-6-6-6---6-6\-----
A-----2-2-2-2-2-2-2/-6--4-4-7-7----7-7/-9-9-9-9-9-9-9\-7--4-4-6-6---6-6\-----
E-----0-0-0-0-0-0-0/-4------5-5----5-5/-7-7-7-7-7-7-7\-5------4-4---4-4\-----

Just listen to the song to get the exact rhythm down

Play during the chorus ("catch that light...") :
e----------------------------------------------------------------------------
B----------------------------------------------------------------------------
G----------------------------------------------------------------------------
D--------11--11---9-9---2----2-2/--11--11---9-9---2----2-2/------------------
A--------11--11---9-9---2----2-2/--11--11---9-9---2----2-2/------------------
E--------9---9----7-7---0----0-0/--9---9----7-7---0----0-0/------------------

e----------------------------------------------------------------------------
B----------------------------------------------------------------------------
G----------------------------------------------------------------------------
D--------11--11---9-9---2--2/7--7-7/--11--11---9-9---2-----------------------
A--------11--11---9-9---2--2/7--7-7/--11--11---9-9---2-----------------------
E--------9---9----7-7---0--0/5--5-5/--9---9----7-7---0-----------------------

Let that last E power chord lead into the verses, and let it ring for a while the
last time you play it (the start of the interlude).

Interlude (before the solo):
e----------------------------------------------------------------------------
B----------------------------------------------------------------------------
G----------------------------------------------------------------------------
D-------------------------6--7-------6h7-9---7p6---------------x\------------
A------------7~(let ring)------------------------9~------------x\------------
E----------------------------------------------------------------------------

After that just play the main verse part 4 times during the solo and then the
chorus. The song ends with the open E chord tapping like before.


Guitar 2 (Clark):

Opening: play this on the high e string:
e-------12p11---12p11---12p11---12p11--(OR)---12(whammy)-etc.----------------

Intro solo:
e----------------------------------------------------------------------------
B----------------------------------------------------------------------------
G-----8h9-8h9-11~9-----------------8h9-11~~-9p8------8----8---8--------------
D------------------9-11b13r11~~~~---------------11-----9----6---7------------
A-----------------------------------------------------------------6h9-7------
E----------------------------------------------------------------------------

e----------------------------------------------------------------------------
B------------------------------------------9h10p9--12-9---10p9\--------------
G-----8h9-8h9-11~9-----------------8h9-11~~----------------------------------
D------------------9-11b13r11~~~~--------------------------------------------
A---------------------------------------------------------------6/7-9-7~-----
E----------------------------------------------------------------------------

Second half of verses("I hate these walls..." and "when you're gone..."):
e----------------------------------------------------------------------------
B----------------------------------------------------------------------------
G-----8h9-8h9-9p8~~~~~~~~~~------------8h9p8---------------------------------
D---------------------------------------------------9\-6~(dive)--------------
A----------------------------------------------------------------------------
E----------------------------------------------------------------------------

e----------------------------------------------------------------------------
B--------------------------------------------9h10p9-12-9-10p9-10p9-----------
G-----8h9-8h9-9p8~~~~~~~~~~-----------8h9-11----------------------11p9-----9-
D---------------------------------------------------------------------11p9---
A----------------------------------------------------------------------------
E----------------------------------------------------------------------------


Chorus ("catch that light..."):
e-----------------------------------------------------12/14\12---------------
B-----------------------------------------------9----------------------------
G---------------9--------------------------9------11-9-----------------------
D-----11---9-11---11-------------11---9-11---11------------------------------
A----------------------11---9------------------------------------------------
E-----------------------------12---------------------------------------------

e----------------------------------------------------------------------------
B----------------------------------------------------------------------------
G---------------9------------------------------------------------------------
D-----11---9-11---11---------------------------------------------------------
A----------------------11----9----9------------------------------------------
E------------------------------12---7/-9~~~~7~~~~~0--(let ring)--------------

During the interlude play the same as the opening(on the high e string).

Solo:
e---14\12-129----------------------------------------------------------------
B-------------12109-10-9--109------------------------------------------------
G-----------------------11---1198h9-8h9----8h9---8h9---8h9-----8-------------
D---------------------------------------11-----9-----7-----6-9---7-----------
A------------------------------------------------------------------6h9-7-----
E----------------------------------------------------------------------------

e---14\12-129---------------------------------------------------------------
B------------12109-12-10-9109-----------------------------------------------
G----------------------------1198h9-8h9----8h9---8h9---8h9-----8-------------
D---------------------------------------11-----9-----7-----6-9---7-----------
A------------------------------------------------------------------6h9-7-----
E----------------------------------------------------------------------------

e----------------------------------------------------------------------------
B---9---------12------9---------------------9h10h12-10p9------9--------------
G----11-9-11-9--9-9h11-11p9-11-9-8----------------------11~-11-11-9----------
D---------------------------------6h7h9-7p6-------------------------11-------
A------------------------------------------9---------------------------------
E----------------------------------------------------------------------------

e----------------------------------------------------------------------------
B-----------------12--10--9---------9-9-9-9-9-10-9h10h12-10p9------9---------
G---11-9-9-8h9p8------------11--9h11-------------------------11~-11-11-9-----
D---------------9------------------------------------------------------------
A----------------------------------------------------------------------------
E----------------------------------------------------------------------------

....Solo leads right into slightyly different chorus part for outro:
e-----------------------------------------------------12/14\12---------------
B-----------------------------------------------9----------------------------
G---------------9--------------------------9------11-9-----------------------
D-----11---9-11---11-------------11---9-11---11------------------------------
A----------------------11---9------------------------------------------------
E-----------------------------12---------------------------------------------

e----------------------------------------------------------------------------
B--------------10p9----------------------------------------------------------
G------------------11p9------------------------------------------------------
D-----11---9-11--------11p9--------------------------------------------------
A--------------------------11----9----9--------------------------------------
E----------------------------------12---7/-9~~~~7~~~~~0--(let ring)----------

That's all!

LYRICS:
In the middle of a house,
In the middle of nowhere,
Bodies glide from room to room.
I hate these walls--
They speak to me;
Hey, skin like a doll, you're no friend,
Of the family.

Chorus:
Catch that light,
It falls in subtle patterns;
Crawls in, and tells them when their time is up,
And when it's over...

He takes her hand,
And he kisses her cheek;
She's a doll, oh yeah, she's his,
Spitting image;
When you're gone,
You're still a part of me,
Hey skin like a doll you're no friend,
Of the family.

Chorus

When it's over....
Now it's over.

Chorus

When you're gone...
You're still a part of me.
comments
print report bad tab
1 comment total.
0 reply
Trisomy21 wrote on March 27 2007, 10:33 am

Nice tab, first chord is an E though, not Em.

I want to post or [tab]
guest
You may want to rate the tab now too:
select rating
Please do not post tabs as comments. Select "correction" instead!