Oops, an error
Loading. Please wait.

Happyface Tab

809 views 1 this week
no commentswrite comment
1 2 3 4 5
please rate
add to favorites
launch autoscroll
font size
0
reset
how to read this tab
guitar tuner
Tab Pro tools
  • play this tab
  • loop segment
  • change instrument
  • show fretboard
  • metronome
×
Best way to learn
"Happyface"
Autoscroll
slow
fast
+/-
esc
set tempo
stop
Contributor
Difficulty
intermediate
-------------------------------------------------------------------------------
                             HAPPY FACE - The Toadies
-------------------------------------------------------------------------------
Tabbed by: ironmanben
Email: bentrooper@gmail.com

Tuning: e B G D A E

guitar 1 - Darrel Herbert - rhythm
guitar 2 - Todd Lewis - rhythm
guitar 3 - Darrel Herbert - lead


main riff:
e|---------------------------------|
B|-4-4-4-----2-2-2-2-----2-2-2-----|
G|-4-4-4-----2-2-2-2-----2-2-2-----|
D|-4-4-4-----2-2-2-2-----2-2-2-----|
A|-2-2-2---x-0-0-0-0---x-0-0-0-----|
E|-------3-x---------3-x-------3-3-|
-|                                 |
e|---------------------------------|
B|-4-4-4-------2-2-2-------2-2-----|
G|-4-4-4-------2-2-2-------2-2-----|
D|-4-4-4-------2-2-2-------2-2-----|
A|---------------------------------|
E|-------3-----------3---------3-3-|


verse:
e|---------------------------------|---------------------------------|
B|---------------------------------|---------------------------------|
G|---------------------------------|---------------------------------|
D|---------------------------------|---------------------------------|
A|-0h2-2-3-----5-5-5/6---------0-0-|-0h2-2-3-----5-5-5/6-----6-6-5-5-|
E|-0h2-2-3-----5-5-5/6-----2-2-0-0-|-0h2-2-3-----5-5-5/6-----6-6-5-5-|
-|                                 |                                 |
e|---------------------------------|---------------------------------|
B|---------------------------------|---------------------------3^----|
G|-2h4-4-4-4-4-4p2-2-2-2-2-2-2-2-2-|-2h4-4-4-4-4-4p2-2-2-2-2-2-------|
D|---------------------------------|---------------------------------|
A|---------------------------------|---------------------------------|
E|---------------------------------|---------------------------------|


chorus:
e|---------------------------------|---------------------------------|
B|---------------------------------|---------------------------------|
G|---------------------------------|---------------------------------|
D|---------------------------------|---------------------------------|
A|-0h2-2-3-----5-5-5/6---------0-0-|-0h2-2-3-----5-5-5/6-----6-6-5-5-|
E|-0h2-2-3-----5-5-5/6-----2-2-0-0-|-0h2-2-3-----5-5-5/6-----6-6-5-5-|
-|                                 |                                 |
e|-5h7-7-7-7-7-7p5-5-5-5-5-5-5-5-5-|-5h7-7-7-7-7-7p5-5-5-5-5-5-5-5-5-|
B|-7-7-7-7-7-7-7-7-7-7-7-7-7-7-7-7-|-7-7-7-7-7-7-7-7-7-7-7-7-7-7-7-7-|
G|---------------------------------|---------------------------------|
D|---------------------------------|---------------------------------|
A|---------------------------------|---------------------------------|
E|---------------------------------|---------------------------------|


bridge:
e|---------------------------------|---------------------------------------|
B|---------------------------------|---------------------------------------|
G|-4-----------------2-------------|-------4-----------------2-------------|
D|-4-----3-----4-----2-----3---4---|-------4-----3-----4-----2-----3---4---|
A|-------3-----4-----------3---4---|-2-----------3-----4-----------3---4---|
E|---------------------------------|-2-------------------------------------|
-|                                 |                                       |
e|---------------------------------|---------------------------------------|
B|---------------------------------|---------------------------------------|
G|-4-----------------2-------------|-------4-----------------2-------------|
D|-4-----2-----4-----2-----2---4---|-------4-----2-----4-----2-----2---4---|
A|-------2-----4-----------2---4---|-2-----------2-----4-----------2---4---|
E|---------------------------------|-2-------------------------------------|


e|---------------------------------------|
B|---------------------------------------|
G|-------4-----------------2-------------|
D|-2-----4-----3-----4-----2-----3---4---|
A|-2-----------3-----4-----------3---4---|
E|---------------------------------------|
-|                                       |
e|---------------------------------------|
B|---------------------------------------|
G|-------4-----------------2-------------|
D|-2-----4-----2-----4-----2-----2---4---|
A|-2-----------2-----4-----------2---4---|
E|---------------------------------------|


e|---------------------------------------|
B|---------------------------------------|
G|-------4-----------------2-------------|
D|-------4-----3-----4-----2-----3---4---|
A|-2-----------3-----4-----------3---4---|
E|-2-------------------------------------|
-|                                       |
e|---------------------------------------|
B|---------------------------------------|
G|-------4-----------------2-------------|
D|-------4-----2-----4-----2-----2---4---|
A|-2-----------2-----4-----------2---4---|
E|-2-------------------------------------|



bridge 2:
 | x1                                    | x3                              |
e|---------------------------------------|---------------------------------|
B|---------------------------------------|---------------------------------|
G|-------4-----------------2-------------|-4-----------------2-------------|
D|-2-----4-----3-----4-----2-----3---4---|-4-----3-----4-----2-----3---4---|
A|-2-----------3-----4-----------3---4---|-------3-----4-----------3---4---|
E|---------------------------------------|---------------------------------|
-|                                       |                                 |
e|---------------------------------------|---------------------------------|
B|---------------------------------------|---------------------------------|
G|-------4-----------------2-------------|-4-----------------2-------------|
D|-2-----4-----2-----4-----2-----2---4---|-4-----2-----4-----2-----2---4---|
A|-2-----------2-----4-----------2---4---|-------2-----4-----------2---4---|
E|---------------------------------------|---------------------------------|


guitar solo:
(guitar 3:)
e|-------------------------------------|
B|-------------------------------------|
G|-------------------------------------|
D|-------------------------------------|
A|-7-7-7-7b(8)rp5-7-7-7-3^-p0-3^p0-----|
E|---------------------------------3^--|


bass riff (arr. for guitar)
e|---------------------------------|
B|---------------------------------|
G|---------------------------------|
D|---------------------------------|
A|-2-----------0-----------0-------|
E|-------3-----------3---------3---|


guitar solo 2:
(guitar 3:)
e|---------------------------------------|
B|-------12----------------10------------|
G|-------------10----11----------10--12--|
D|---------------------------------------|
A|---------------------------------------|
E|---------------------------------------|

e|---------------------------------|
B|-10\\--------------10------------|
G|-------9-----11----------9---11--|
D|---------------------------------|
A|---------------------------------|
E|---------------------------------|

e|---------------------------------|
B|-12\\--------------10------------|
G|-------9-----11----------9---11--|
D|---------------------------------|
A|---------------------------------|
E|---------------------------------|

e|---------------------------------|
B|-12----------------10------------|
G|-------9-----11----------9---11--|
D|---------------------------------|
A|---------------------------------|
E|---------------------------------|


end:
e|--------------------|
B|--------------------|
G|--------------------|
D|--------------------|
A|-2------------------|
E|-2------------------|
-|                    |
e|--------------------|
B|--------------------|
G|-4------------------|
D|-4------------------|
A|-2------------------|
E|--------------------|
-|                    |
e|--------------------|
B|--------------------|
G|--------------------|
D|--------------------|
A|-7~////////////////-|
E|-7~////////////////-|


ORDER:
main riff (guitar 1 only) x4
main riff (both guitars) x4
verse x2
chorus x2
main riff x4
verse x2
chorus x2
bridge
chorus x2
bridge
bridge 2
main riff x4/guitar solo x4
bass riff x2
chorus x2
bridge
bridge 2/guitar solo 2
end



************************************

| /   slide up
| \   slide down
| h   hammer-on
| p   pull-off
| ~   vibrato
| +   harmonic
| x   Mute note
| b   Bend
| pb  Pre-bend
| br  Bend release
| pbr Pre-bend release
| brb Bend release bend

************************************
comments
We did not receive enough feedback on this tab! Please rate:
print report bad tab
1 2 3 4 5
I want to post or [tab]
guest
You may want to rate the tab now too:
select rating
Please do not post tabs as comments. Select "correction" instead!