Oops, an error
Loading. Please wait.

Heel Bass Tab

238 views 1 this week
no commentswrite comment
1 2 3 4 5
please rate
add to favorites
launch autoscroll
font size
0
reset
guitar tuner
Autoscroll
slow
fast
+/-
esc
set tempo
stop
Help us to improve Ultimate-Guitar.com Take our survey!
×
Author
----------------------------------------------------------------------------
			      Heel - Toadies
----------------------------------------------------------------------------

Bass comes in at 0:23
 G|----------------|
 D|----------------|
 A|-33-3-44-4-55-5-|
 E|----------------|

 G|---------------------|
 D|---------------------| x2
 A|-22-2-33-3-44-4-55-5-|
 E|---------------------|

 G|--------------------------|
 D|--------------------------| 
 A|-22-2-33-3-4444-5555-2222-|
 E|--------------------------|

Bass rests from 0:34 to 0:57 then

 G|----------------|
 D|----------------|
 A|-33-3-44-4-55-5-|
 E|----------------|

 G|---------------------|
 D|---------------------| x2
 A|-22-2-33-3-44-4-55-5-|
 E|---------------------|

 G|-----------------------|
 D|-----------------------| 
 A|-22-2-33-3-4444-5555-2-|
 E|-----------------------|

 G|-----------------------------------------|
 D|----------------2222-3333----------------| x2
 A|------4444-1111-----------4444-1111------|
 E|-1111-------------------------------0000-|

 G|---------------------|
 D|----------------2222-| x2
 A|------4444-1111------|
 E|-1111----------------|

 G|---------------------------------------|
 D|----------------2222-3333--------------| 
 A|------4444-1111-----------4444-11111---|
 E|-1111--------------------------------0-|

 G|-----------------|
 D|-----------------| x3
 A|-1111111111111---|
 E|---------------0-|

 G|------------------|
 D|------------------| 
 A|-1111111111111----|
 E|---------------0~-|

Bass rests from 1:48 to 2:03 then

G|---------------------|
D|-3333-----------2222-|
A|------4444-1111------|
E|---------------------|

 G|-----------------------------------------|
 D|----------------2222-3333-----------2222-| x3
 A|------4444-1111-----------4444-1111------|
 E|-1111------------------------------------|

 G|---------------------------------------|
 D|----------------2222-3333--------------| 
 A|------4444-1111-----------4444-11111---|
 E|-1111--------------------------------0-|

 G|-----------------|
 D|-----------------| x4
 A|-1111111111111---|
 E|---------------0-|

G|-----------------|
D|-----------------|
A|-1---1-----------|
E|---0---0~------0-|

============================================================================
| ~  vibrato
============================================================================
Suggest correction
Give kudos to tab author, rate the tab!
1 2 3 4 5
comments
print report bad tab
guest
You may want to rate the tab now too:
select rating
Please do not post tabs as comments. Select "correction" instead!