Oops, an error
Loading. Please wait.

Heel Tab

version 1
version 1

Whole song

1,114 views 1 this week
no commentswrite comment
1 2 3 4 5
please rate
add to favorites
launch autoscroll
font size
0
reset
how to read this tab
guitar tuner
Autoscroll
slow
fast
+/-
esc
set tempo
stop
Help us to improve Ultimate-Guitar.com Take our survey!
×
Toadies - Heel
Tabbed by Alex Luitweiler
Normal Tuning

I highly recommend finding another guitarist to play this song with. It's a lot more fun 
playing this song by yourself.

Intro
Gtr. 1
e|-----------------------------------------------------------------------|
B|-----------------------------------------------------------------------|
G|-----------------------------------------------------------------------|
D|---10--9--8--9---------------------------------------------------------| 10x
A|---8---8--8--8---------------------------------------------------------|
E|-----------------------------------------------------------------------|

Gtr. 2  During the 10th time
e|--PM . . . . ----------------------------------------------------------|
B|-----------------------------------------------------------------------|
G|--1-1-1-1-1-1----------------------------------------------------------|
D|--2-2-2-2-2-2----------------------------------------------------------|
A|--2-2-2-2-2-2----------------------------------------------------------|
E|-----------------------------------------------------------------------|

Verse
Part 1
Gtr. 1
e|-----------------------------------------------------------------------|
B|---13-13-13--12-12-12--11-11-11--12-12-12------------------------------|
G|---10-10-10--10-10-10--10-10-10--10-10-10------------------------------|
D|-----------------------------------------------------------------------| 4x
A|-----------------------------------------------------------------------|
E|-----------------------------------------------------------------------|

Gtr. 2  During the 4th time
e|-----------------------------------------------------------------------|
B|-----------------------------------------------------------------------|
G|--10-10-10--6-6-6---------9-9-9----------------------------------------|
D|--10-10-10--6-6-6--8-8-8--9-9-9----------------------------------------|
A|--8--8--8---4-4-4--8-8-8--7-7-7----------------------------------------|
E|-------------------6-6-6-----------------------------------------------|

Part 2
Gtr. 1
e|-----------------------------------------------------------------------|
B|-----------------------------------------------------------------------|
G|-----------------------------------------------------------------------|
D|-----------------------------------------------------------------------|
A|-----------------------------------------------------------------------|
E|-----------------------------------------------------------------------|

Gtr. 2
e|-----------------------------------------------------------------------|
B|-----------------------------------------------------------------------|
G|--10-10-10--6-6-6---------9-9-9----------------------------------------|
D|--10-10-10--6-6-6--8-8-8--9-9-9----------------------------------------| 8x
A|--8--8--8---4-4-4--8-8-8--7-7-7----------------------------------------|
E|-------------------6-6-6-----------------------------------------------|

Chorus
Part 1
Gtr 1.
e|-----------------------------------------------------------------------|
B|---13-13-13--12-12-12--11-11-11--12-12-12------------------------------|
G|---10-10-10--10-10-10--10-10-10--10-10-10------------------------------|
D|-----------------------------------------------------------------------| 4x
A|-----------------------------------------------------------------------|
E|-----------------------------------------------------------------------|

Gtr. 2
e|-----------------------------------------------------------------------|
B|-----------------------------------------------------------------------|
G|--10-10-10--6-6-6---------9-9-9----------------------------------------|
D|--10-10-10--6-6-6--8-8-8--9-9-9----------------------------------------| 4x
A|--8--8--8---4-4-4--8-8-8--7-7-7----------------------------------------|
E|-------------------6-6-6-----------------------------------------------|

Part 2
Both Gtrs.
e|-----------------------------------|----------------------------------------|
B|-----------------------------------|----------------------------------------|
G|-10-10-10--6-6-6---------9-9-9-----|--10-10-10--6-6-6---------------1-------|
D|-10-10-10--6-6-6--8-8-8--9-9-9—-3x-|--10-10-10--6-6-6--8-8-8-8-8-8--2----1x-|
A|-8--8--8---4-4-4--8-8-8--7-7-7-----|--8--8--8---4-4-4--8-8-8-8-8-8--2-------|
E|------------------6-6-6------------|-------------------6-6-6-6-6-6----------|

Part 3
Gtr. 1
e|-----------------------|
B|-----------------------|
G|-----------------1-----|
D|--8-8-8-8-8-8----2-----| 4x
A|--8-8-8-8-8-8----2-----|
E|--6-6-6-6-6-6----------|

Gtr. 2
e|-----------------------|
B|--6-6-6-6-6-6----------|
G|-----------------1-----|
D|--3-3-3-3-3-3----2-----| 4x
A|-----------------2-----|
E|-----------------------|

Interlude
Gtr. 1
e|-----------------------------------------------------------------------|
B|---13-13-13--12-12-12--11-11-11--12-12-12------------------------------|
G|---10-10-10--10-10-10--10-10-10--10-10-10------------------------------|
D|-----------------------------------------------------------------------| 6x
A|-----------------------------------------------------------------------|
E|-----------------------------------------------------------------------|

Gtr. 2  During the 5th and 6th time
e|-----------------------------------------------------------------------|
B|--13b-13b-13b----------------------------------------------------------|
G|-----------------------------------------------------------------------|
D|-----------------------------------------------------------------------|
A|-----------------------------------------------------------------------|
E|-----------------------------------------------------------------------|

Chorus

End


If you want to play it by yourself, here is my suggestion:
Intro - Gtr 1
Verse - Part 1 - Gtr 1
Verse - Part 2 - Gtr 2
Chorus - Part 1 - Gtr 1
Chorus - Part 2
Chorus - Part 3 - Gtr 1
Interlude - Gtr 1
Chorus - Part 1 - Gtr 1
Chorus - Part 2
Chorus - Part 3 - Gtr 1


Enjoy!
Suggest correction
What's this?
You can suggest a correction to this tab. Community and Mods will review your correction and vote to approve or reject it.
comments
We did not receive enough feedback on this tab! Please rate:
print report bad tab
1 2 3 4 5
guest
You may want to rate the tab now too:
select rating
Please do not post tabs as comments. Select "correction" instead!