Oops, an error
Loading. Please wait.

I Am A Man Of Stone Tab

version 1
version 1

Whole song

1,844 views 1 this week
no commentswrite comment
1 2 3 4 5
please rate
add to favorites
launch autoscroll
font size
0
reset
how to read this tab
guitar tuner
Tab Pro tools
  • play this tab
  • loop segment
  • change instrument
  • show fretboard
  • metronome
×
Best way to learn
"I Am A Man Of Stone"
Autoscroll
slow
fast
+/-
esc
set tempo
stop
Contributor
Difficulty
intermediate
----------------------------------------------------------------------------
I AM A MAN OF STONE - The Toadies
----------------------------------------------------------------------------
Tabbed by: ironmanben
Email: bentrooper@gmail.com

Tuning: e B G D A E

start like this:

guitar 1
x4
e|--------------------------------------------------|
B|-9-------9-------------9-------9--9---------------|
G|-11^(13)-11--4-6/9-9---11^(13)-11-11^(13)-4-6/9-9-|
D|--------------------------------------------------|
A|--------------------------------------------------|
E|--------------------------------------------------|
guitar 2 is silent for the first 2 times of guitar 1's riff, but...
      |do this part x2           |
e|----|--------------------------|
B|----|--------------------------|
G|----|-9-----------9-9----------|
D|----|-9--7-6--12--9-9--7-6--12-|
A|----|-7--7-6--12--7-7--7-6--12-|
E|-1^-|-0--5-4--10--0-0--5-4--10-|
  ^star this at the end of guitar 1's second riff

guitar 1
(quickly!)
 |continue playing the 12th fret for the rest of guitar 2's part. |
e|-12121212121212121212121212121212121212121212121212121212121212-|
B|----------------------------------------------------------------|
G|----------------------------------------------------------------|
D|----------------------------------------------------------------|
A|----------------------------------------------------------------|
E|----------------------------------------------------------------|
guitar 2
x2
e|---------------------------|
B|---------------------------|
G|-9-----------9-9-----------|
D|-9--7-6--12--9-9--7-6-6-12-|
A|-7--7-6--12--7-7--7-6-6-12-|
E|-0--5-4--10--0-0--5-4-4-10-|

verse:
guitar 1-silent
guitar 2:
x2
(You can add some scratching and muting into the silent part.)
e|------------------------------------------------------------------------|
B|------------------------------------------------------------------------|
G|----------------------------------------------9-----------9-9-----------|
D|--------------------------------------------xx9--7-6--12--9-9--7-6-6-12-|
A|--------------------------------------------xx7--7-6--12--7-7--7-6-6-12-|
E|--------------------------------------------xx0--5-4--10--0-0--5-4-4-10-|
1. I saw you hangin' on the arm of some other guy...
2. Like a drummer who's been bangin'...............

pre-chorus:
guitar 1
x4
e|---------------------------|
B|---------------------------|
G|-9-----------9-9-----------|
D|-9--7-6--12--9-9--7-6-6-12-|
A|-7--7-6--12--7-7--7-6-6-12-|
E|-0--5-4--10--0-0--5-4-4-10-|
guitar 2
x4
e|---------------------------|
B|---------------------------|
G|-9-----------9-9-----------|
D|-9--7-6--12--9-9--7-6-6-12-|
A|-7--7-6--12--7-7--7-6-6-12-|
E|-0--5-4--10--0-0--5-4-4-10-|


chorus:
guitar 1
e|-----------------------|-------------------------------------------|
B|-----------------------|-------------------------------------------|
G|-----5-----2-2---------|--(silence...........)---------------------|
D|---5-----2---------2-2-|-------------------------------------------|
A|-3-----0---------2-----|-------------------------------------------|
E|---------------0-------|-------------------------------------------|
guitar 2
 |x3                     | x1
e|-----------------------|-------------------------------------------|
B|-----------------------|-------------------------------------------|
G|-5-5-5-2-2-2-2---------|---------2-2-2-2-5-5-5-5-5-----------------|
D|-5-5-5-2-2-2-2-2-2-2-2-|-5-5-5-5-2-2-2-2-5-5-5-5-5-----------------|
A|-3-3-3-0-0-0-0-2-2-2-2-|-5-5-5-5-0-0-0-0-3-3-3-3-3-----------------|
E|---------------0-0-0-0-|-3-3-3-3-------------------0-0-0-0-0-0-0-0-|
                                                    |palm mute.......|

then, repeat the...
verse
pre-chorus
chorus

then...

bridge:
guitar 1
x1 (Only play this over guitar 2's 3rd repeat during the bridge)
e|--------------------------------------------------------------------------|
B|--------------------------------------------------------------------------|
G|-/12-12-12-12-12-12-12-12-11-11-11-11-11-11-11-11-10-10-10-10-10-10-10-10-|
D|-/12-12-12-12-12-12-12-12-12-12-12-12-12-12-12-12-10-10-10-10-10-10-10-10-|
A|--------------------------------------------------------------------------|
E|--------------------------------------------------------------------------|

e|---------------|
B|---------------|
G|-9-9-9-9-9-9\\-|
D|-101010101010\-|
A|---------------|
E|---------------|
guitar 2
x3
e|-------------------------------------------------------------------------|
B|-------------------------------------------------------------------------|
G|-------------------------------------------------------------------------|
D|-5-5-5-5-5-5-5-5-/12-12-12-12-12-12-12-12-/3-3-3-3-3-3-3-3-/101010101010-|
A|-5-5-5-5-5-5-5-5-/12-12-12-12-12-12-12-12-/3-3-3-3-3-3-3-3-/101010101010-|
E|-3-3-3-3-3-3-3-3-/10-10-10-10-10-10-10-10-/1-1-1-1-1-1-1-1-/8-8-8-8-8-8--|

e|-----|
B|-----|
G|-----|
D|-9-8-|
A|-9-8-|
E|-7-6-|
^This is still guitar 2, I just didn't have enough room.  Don't take any rest between 
first line of guitar 2 and this.

then...
guitar 1
e|---------------------------------|
B|-5--------------8----------------|
G|-7^(9)----------10^(12)----------|
D|---------------------------------|
A|---------------------------------|
E|---------------------------------|
guitar 2
e|---------------------------------|
B|---------------------------------|
G|---------------------------------|
D|-7-7-7-7-7-7-7-7-7-7-7-7-7-7-7-7-|
A|-7-7-7-7-7-7-7-7-7-7-7-7-7-7-7-7-|
E|-5-5-5-5-5-5-5-5-5-5-5-5-5-5-5-5-|

guitar 1
x2
e|--------------------------------------------------|
B|-9-------9-------------9-------9--9---------------|
G|-11^(13)-11--4-6/9-9---11^(13)-11-11^(13)-4-6/9-9-|
D|--------------------------------------------------|
A|--------------------------------------------------|
E|--------------------------------------------------|
guitar 2
e|-----|
B|-----|
G|-----|
D|-2~~-|
A|-2~~-|
E|-0~~-|

guitar 1
(quickly!)
 |continue playing the 12th fret for the rest of guitar 2's part. |
e|-12121212121212121212121212121212121212121212121212121212121212-|
B|----------------------------------------------------------------|
G|----------------------------------------------------------------|
D|----------------------------------------------------------------|
A|----------------------------------------------------------------|
E|----------------------------------------------------------------|
guitar 2
x1
e|---------------------------|
B|---------------------------|
G|-9-----------9-9-----------|
D|-9--7-6--12--9-9--7-6-6-12-|
A|-7--7-6--12--7-7--7-6-6-12-|
E|-0--5-4--10--0-0--5-4-4-10-|

guitar 1
(quickly!)
 |continue playing the 12th fret for the rest of guitar 2's part.|
e|-12/1616161616161616161616161616161616161616161616161616161616-|
B|---------------------------------------------------------------|
G|---------------------------------------------------------------|
D|---------------------------------------------------------------|
A|---------------------------------------------------------------|
E|---------------------------------------------------------------|
guitar 2
x1
e|---------------------------|
B|---------------------------|
G|-9-----------9-9-----------|
D|-9--7-6--12--9-9--7-6-6-12-|
A|-7--7-6--12--7-7--7-6-6-12-|
E|-0--5-4--10--0-0--5-4-4-10-|

chorus:
guitar 1
e|-----------------------|-------------------------------------|
B|-----------------------|-------------------------------------|
G|-----5-----2-2---------|---------2-2-2-2-5-5-5-5-5-----------|
D|---5-----2---------2-2-|-5-5-5-5-2-2-2-2-5-5-5-5-5-----------|
A|-3-----0---------2-----|-5-5-5-5-0-0-0-0-3-3-3-3-3-----------|
E|---------------0-------|-3-3-3-3-------------------0-0-0-0-0-|
guitar 2                                            |palm mute.|
 |x3                     | x1
e|-----------------------|-------------------------------------|
B|-----------------------|-------------------------------------|
G|-5-5-5-2-2-2-2---------|---------2-2-2-2-5-5-5-5-5-----------|
D|-5-5-5-2-2-2-2-2-2-2-2-|-5-5-5-5-2-2-2-2-5-5-5-5-5-----------|
A|-3-3-3-0-0-0-0-2-2-2-2-|-5-5-5-5-0-0-0-0-3-3-3-3-3-----------|
E|---------------0-0-0-0-|-3-3-3-3-------------------0-0-0-0-0-|
                                                    |palm mute.|


| /  slide up
| \  slide down
| h  hammer-on
| p  pull-off
| ~  vibrato
| +  harmonic
| x  Mute note
===============================================================================
comments
We did not receive enough feedback on this tab! Please rate:
print report bad tab
1 2 3 4 5
I want to post or [tab]
guest
You may want to rate the tab now too:
select rating
Please do not post tabs as comments. Select "correction" instead!