Oops, an error
Loading. Please wait.

I Come From The Water Bass Tab

version 2
version 2

Whole song

Interactive

1,773 views 3 this week
no commentswrite comment
1 2 3 4 5
3 more votes to show rating
add to favorites
launch autoscroll
font size
0
reset
guitar tuner
Autoscroll
slow
fast
+/-
esc
set tempo
stop
Help us to improve Ultimate-Guitar.com Take our survey!
×
Author
Difficulty
intermediate
I Come From the Water by The Toadies
Tabbed by Pat Murphy
Tuning - EADG

Rest for one measure
Verse
G--------------------|
D--------------------|
A--------------------|x12
E--0--3--5--6--5--3--|

Chorus
G-----------------|  |--------------------|
D-----------------|  |--------------------|
A-------rest------|x1|----------rest------|x3
E--0--------------|  |--3--0--------------|

Verse x 8

Chorus
G-----------------|  |--------------------|
D-----------------|  |--------------------|
A-------rest------|x1|----------rest------|x3
E--0--------------|  |--3--0--------------|

Bridge
G------------------------------------------------------------------------|
D------------------------------------------------------------------------|
A-------------------------------------2--2--2--2--2--2-------------------|x4
E-2--2--2--2--2--2--3--3--3--3--3--3--------------------5--5--5--5--5--5-|

Break Down
G---------------------------------------------------------------------------|
D---------------------------------------------------------------------------|
A---------------------------------------------------------------------------|
E-2--2--2--2--2--2--3--3--3--3--3--3--5-----5-----7-----7-----7-----7-----7-|

-------------------|
-------------------|
-------------------|
----7-----7-----7--|

Verse x 8 (solo)

Chorus
G-----------------|  |--------------------|
D-----------------|  |--------------------|
A-------rest------|x1|----------rest------|x3
E--0--------------|  |--3--0--------------|

Outro
G-------------------------777777777777777777777777~~-----|
D-----------------------6--------------------------------|
A---------------------7----------------------------------|
E-0------0-----0~~~~~---------------------------------0--|
Suggest correction
Give kudos to tab author, rate the tab!
1 2 3 4 5
comments
print report bad tab
guest
You may want to rate the tab now too:
select rating
Wanna post a correction for this tab? Suggest correction