Oops, an error
Loading. Please wait.

I Come From The Water Tab

version 2
version 2

Whole song

Interactive

18,251 views 48 this week
no commentswrite comment
1 2 3 4 5
excellent!
x 4
add to favorites
launch autoscroll
font size
0
reset
how to read this tab
guitar tuner
Tab Pro tools
  • play this tab
  • loop segment
  • change instrument
  • show fretboard
  • metronome
Autoscroll
slow
fast
+/-
esc
set tempo
stop
Contributor
I ripped this off another site, but its right...

I Come From the Water
by the Toadies

Intro & Main riff
E-------|------------------------------------|
B-------|--------2--3--2---------------------|
G-------|--------2--3--2---------------------|
D-------|--------2--3--2---------------------|
A--12\2-|-2------0-----0---------------------|
E-------|-0--3^-----------3^-----------------|
    ^opening slide


E------------------------------------------|
B------------------------------------------|
G------------------------------------------|
D------------------------------------------|
A--2-----5-----7-----8-----7-----5---------|
E--0--0--3--0--5--0--6--0--5--0--3--0------|

Bridge
E---------------------------------------------------------------------------|
B---------------------------------------------------------------------------|
G---------------------------------------------------------------------------|
D--------------------------------------------------4---4---4---4---4---4----|
A--4---4---4---4---4---4---5---5---5---5---5---5---2-0-2-0-2-0-2-0-2-0-2-0--|
E--2-0-2-0-2-0-2-0-2-0-2-0-3-0-3-0-3-0-3-0-3-0-3-0--------------------------|

Bridge (cont.)
E------------------------------------------|
B------------------------------------------|
G--2-0-2-0-2-0-2-0-2-0-2-0-----------------|
D--2-0-2-0-2-0-2-0-2-0-2-0-----------------|
A--0-0-0-0-0-0-0-0-0-0-0-0-----------------|
E------------------------------------------|

Pre-solo
E--2-2-2--3-3-3-----5-5-----5-5-----7--7-----7--7--------|
B--2-2-2--3-3-3-----5-5-----5-5----10-10----10-10--------|
G--3-3-3--4-4-4-----6-6-----6-6-----8--8-----8--8--------|
D--4-4-4--5-5-5-----7-7-----7-7-----7--7-----7--7--------|
A--4-4-4--5-5-5-----7-7-----7-7-----9--9-----9--9--------|
E--2-2-2--3-3-3--5--5-5--5--5-5--7--7--7--7--7--7--------|
   ^      ^                                       ^repeat

Solo                     Bend a full note
E--------------------------------------|
B--------------------------------------|
G--13\9\7\4--2(~)-0------0-2-2^2(~)-0--|
D-------------------2(~)---------------|
A--------------------------------------|
E--------------------------------------|

Continued...
E----------------------------2--3----------------|
B-------------------------0--2--3--3p2p0---------|
G--13\9\7\4--2(~)-0--1(~)-----------------3p2p0--|
D------------------------------------------------|
A------------------------------------------------|
E------------------------------------------------|


    ^bend these 1/2 note       #bend full
E-------------------------------------------------------------------|
B--12^------15^------12^------16#------12^------15^-----------------|
G--14^------17^------14^------18#------14^------17^---19(trem bar)--|
D-------------------------------------------------------------------|
A-------------------------------------------------------------------|
E-------------------------------------------------------------------|

thats it.
comments
print report bad tab
I want to post or [tab]
guest
You may want to rate the tab now too:
select rating
Please do not post tabs as comments. Select "correction" instead!