Oops, an error
Loading. Please wait.

I Come From The Water Tab

version 3
version 3

Whole song

Interactive

803 views 3 this week
no commentswrite comment
1 2 3 4 5
please rate
add to favorites
launch autoscroll
font size
0
reset
how to read this tab
guitar tuner
Tab Pro tools
  • play this tab
  • loop segment
  • change instrument
  • show fretboard
  • metronome
×
Best way to learn
"I Come From The Water"
Autoscroll
slow
fast
+/-
esc
set tempo
stop
Contributor
Difficulty
intermediate
-------------------------------------------------------------------------------
                            I COME FROM THE WATER - The Toadies
-------------------------------------------------------------------------------
Tabbed by: ironmanben
Email: bentrooper@gmail.com

Tuning: e B G D A E

guitar 1 - Todd Lewis - Rhythm
guitar 2 - Darrel Herbert - Lead


main riff:
e|-------------------|
B|-------------------|
G|----------2-3-2----|
D|-2-2------2-3-2----|
A|-2-2---------------|
E|-----3^---------3^-|
-|                   |
e|-------------------|
B|----------2-3-2----|
G|----------2-3-2-0--|
D|-2-2------2-3-2-0--|
A|-2-2---------------|
E|-0-0---------------|


verse:
e|-------------------------|-------------------------|
B|-------------------------|-------------------------|
G|-----4---6---7---6---4---|-----4---6---7---6---4---|
D|-2---5---7---8---7---5---|-2-2-5---7---8---7---5---|
A|-2---5---7---8---7---5---|-2-2-5---7---8---7---5---|
E|-0-0-3-0-5-0-6-0-5-0-3-0-|-0-0-3-0-5-0-6-0-5-0-3-0-|
-| x x x x x x x x x x x x | x x x x x x x x x x x x |
e|-------------------------|-------------------------|
B|-------------------------|-------------------------|
G|-------------------------|-------------------------|
D|-------------------------|-------------------------|
A|-------------------------|-------------------------|
E|-0-0-3-3-5-5-6-6-5-5-3-3-|-0-0-3-3-5-5-6-6-5-5-3-3-|
   x x x x x x x x x x x x   x x x x x x x x x x x x

e|-------------------------|-------------------------|
B|-------------------------|-------------------------|
G|-----4---6---7---6---4---|-----4---6---7---6---4---|
D|-2---5---7---8---7---5---|-2-2-5---7---8---7---5---|
A|-2---5---7---8---7---5---|-2-2-5---7---8---7---5---|
E|-0-0-3-0-5-0-6-0-5-0-3-0-|-0-0-3-0-5-0-6-0-5-0-3-0-|
-| x x x x x x x x x x x x | x x x x x x x x x x x x |
e|-------------------------|-------------------------|
B|-------------------------|-------------------------|
G|-------------------------|-------------------------|
D|-------------------------|-------------------------|
A|-------------------------|-------------------------|
E|-0-0-3-3-5-5-6-6-5-5-3-3-|-0-0-3-3-5-5^(6)-5---3^--|
   x x x x x x x x x x x x   x x x x


chorus:
e|-0----------0----------0---------0-------------|
B|-0------0---0------0---0------0--0--x--x-------|
G|-1------0---1------0---1------0--1--x--x-------|
D|-0------0---0------0---0------0--0--x--x-------|
A|-2----------2----------2---------2-------------|
E|-0----------0----------0---------0-------------|
-|                                               |
e|-----------------------------------------------|
B|-----------------------------------------------|
G|-----------------------------------------------|
D|-2----------2----------2---------2--x--x-------|
A|-2----------2----------2---------2--x--x-------|
E|-0------3^--0------3^--0------3^-0--x--x--3\\\-|


bridge:
e|----------------------------------------------------------------------|
B|----------------------------------------------------------------------|
G|------------------------------------------------------------------6-6-|
D|-----------------------------------------------------------------77-7-|
A|-4--4--4--4--4--4--5--5--5--5--5--5--9-99-99-99-99-99-7-77-77-77-77-7-|
E|-2-02-02-02-02-02-03-03-03-03-03-03-07-77-77-77-77-77-5-55-55-55-55-5-|
-| x xx xx xx xx xx xx xx xx xx xx xx xx xx xx xx xx xx x xx xx xx      |
e|----------------------------------------------------------------------|
B|-x-xx-xx-xx-xx-xx-xx-xx-xx-xx-xx-xx-xx-xx-xx-xx-xx-xx-x-xx-xx-xx-xx-x-|
G|-x-xx-xx-xx-xx-xx-xx-xx-xx-xx-xx-xx-xx-xx-xx-xx-xx-xx-x-xx-xx-xx-xx-x-|
D|-x-xx-xx-xx-xx-xx-xx-xx-xx-xx-xx-xx-xx-xx-xx-xx-xx-xx-x-xx-xx-xx-xx-x-|
A|----------------------------------------------------------------------|
E|----------------------------------------------------------------------|

e|----------------------------------------------------------------------|
B|----------------------------------------------------------------------|
G|------------------------------------------------------------------6-6-|
D|-----------------------------------------------------------------77-7-|
A|-4--4--4--4--4--4--5--5--5--5--5--5--9-99-99-99-99-99-7-77-77-77-77-7-|
E|-2-02-02-02-02-02-03-03-03-03-03-03-07-77-77-77-77-77-5-55-55-55-55-5-|
-| x xx xx xx xx xx xx xx xx xx xx xx xx xx xx xx xx xx x               |
e|----------------------------------------7--7--7--7--7-----------------|
B|-x-xx-xx-xx-xx-xx-xx-xx-xx-xx-xx-xx-xx--7--7--7--7--7-2--2--2--2--2-2-|
G|-x-xx-xx-xx-xx-xx-xx-xx-xx-xx-xx-xx-xx----------------2--2--2--2--2-2-|
D|-x-xx-xx-xx-xx-xx-xx-xx-xx-xx-xx-xx-xx----------------2--2--2--2--2-2-|
A|----------------------------------------------------------------------|
E|----------------------------------------------------------------------|

e|-----------------------------------------------------------------------|
B|-----------------------------------------------------------------------|
G|-----------------------------------------------------------------------|
D|-----------------------------------------------------------------------|
A|-4--4--4--4--4--4--5--5--5--5--5--5--9-99-99-99-99-99-7-77-775-4-5-4---|
E|-2-02-02-02-02-02-03-03-03-03-03-03-07-77-77-77-77-77-5-55-55---5---7-5|
-|                                                                       |
e|-----------------------------------------------------------------------|
B|-7--7--7--7--7--7--8--8--8--8--8--8------------------------------------|
G|-6--6--6--6--6--6--7--7--7--7--7--7--4--4--4--4--4--4------------------|
D|-4--4--4--4--4--4--5--5--5--5--5--5--4--4--4--4--4--4-7--7--7--7--7-7--|
A|-------------------------------------2--2--2--2--2--2-7--7--7--7--7-7--|
E|-------------------------------------2--2--2--2--2--2-5--5--5--5--5-5--|


e|-2--2--2--2--2--2--3--3--3--3--3--3------------------------------------|
B|-2--2--2--2--2--2--3--3--3--3--3--3--3--3--3--3--3--3-2--2--2--2--2--2-|
G|-3--3--3--3--3--3--4--4--4--4--4--4--4--4--4--4--4--4--2--2--2--2--2--2|
D|-4--4--4--4--4--4--5--5--5--5--5--5------------------------------------|
A|-4--4--4--4--4--4--5--5--5--5--5--5------------------------------------|
E|-2-02-02-02-02-02-03-03-03-03-03-03------------------------------------|
-|
e|-----------------------------------------------------------------------|
B|-7--7--7--7--7--7--8--8--8--8--8--8------------------------------------|
G|-6--6--6--6--6--6--7--7--7--7--7--7--4--4--4--4--4--4------------------|
D|-4--4--4--4--4--4--5--5--5--5--5--5--4--4--4--4--4--4-7--7--7--7--7-7--|
A|-------------------------------------2--2--2--2--2--2-7--7--7--7--7-7--|
E|-------------------------------------2--2--2--2--2--2-5--5--5--5--5-5--|

                                      vTempo changes here
e|-2--2--2--2--2--2--3--3--3--3--3--3--------------------------------------|
B|-2--2--2--2--2--2--3--3--3--3--3--3--------------------------------------|
G|-3--3--3--3--3--3--4--4--4--4--4--4--------------------------------------|
D|-4--4--4--4--4--4--5--5--5--5--5--5--7--------7--------9--------9--------|
A|-4--4--4--4--4--4--5--5--5--5--5--5--7--------7--------9--------9--------|
E|-2-02-02-02-02-02-03-03-03-03-03-03-05--------5--------7--------7--------|
-|                                                                         |
e|----------------------------------------5--5-----5--5-----7--7-----7--7--|
B|----------------------------------------5--5-----5--5-----10-10----10-10-|
G|----------------------------------------6--6-----6--6-----8--8-----8--8--|
D|-4--4--4--4--4--4--5--5--5--5--5--5-----7--7-----7--7-----7--7-----7--7--|
A|-4--4--4--4--4--4--5--5--5--5--5--5--------------------------------------|
E|-2--2--2--2--2--2--3--3--3--3--3--3--------------------------------------|

e|-------------------------------------------------------------------------|
B|-------------------------------------------------------------------------|
G|--------------------------------------------------------8--8--8--8--8--8-|
D|-9------------------------------------9--9--9--9--9--9--9--9--9--9--9--9-|
A|-9--------99-------999------999-------9--9--9--9--9--9--9--9--9--9--9--9-|
E|-7--------77-------777------777-------7--7--7--7--7--7--7--7--7--7--7--7-|
-|                                                                         |
e|----7--77----7--77----7--77----7--77--7--7--7--7--7--7--7--7--7--7--7--7-|
B|---10-1010--10-1010--10-1010--10-1010-10-10-10-10-10-10-10-10-10-10-10-10|
G|----8--88----8--88----8--88----8--88--8--8--8--8--8--8--8--8--8--8--8--8-|
D|----7--77----7--77----7--77----7--77--7--7--7--7--7--7--7--7--7--7--7--7-|
A|--------------------------------------9--9--9--9--9--9--9--9--9--9--9--9-|
E|--------------------------------------7--7--7--7--7--7--7--7--7--7--7--7-|

guitar solo:
(Tempo goes back to normal)
e|-------------------|---------------------------------------------------|
B|-------------------|---------------------------------------------------|
G|----0--2--3--2--0--|----------2-3-2--------------------2-3-2-----------|
D|-2--0--2--3--2--0--|----------2-3-2--------------------2-3-2-----------|
A|-2-----------------|-2-2----------------------2-2----------------------|
E|-0-----------------|-0-0-3^---------3^--------0-0-3^---------3^--------|
-|                   |                                                   |
e|-------------------|---------------------------------------------------|
B|-------------------|----------------------------------10-^(12)r(10)----|
G|-------------------|-13-\9-9-\7-7-\4-4-2~-0-----0--2-----------------0-|
D|-------------------|-------------------------2-------------------------|
A|-------------------|---------------------------------------------------|
E|-0~Whammy bar dive-|---------------------------------------------------|

e|--------------------------------------------------|
B|--------------------------------------------------|
G|----------2-3-2----------------2-3-2--------------|
D|----------2-3-2----------------2-3-2--------------|
A|----------------------2-2-------------------------|
E|-0-0-3^---------3^----0-0-3^---------3^-----------|
-|                                                  |
e|--------------------------------2--3--------------|
B|-----------------------------0--2--3--3p2p0-------|
G|-13-\9-9-\7-7-\4-4-2~-0--1------------------3p2p0-|
D|--------------------------------------------------|
A|--------------------------------------------------|
E|--------------------------------------------------|

The last 3 notes of the part of the solo above might actually be played as this:
e|-------|
B|-------|
G|-4p3p0-|
D|-------|
A|-------|
E|-------|
I found it hard to tell which was right in the song, so try either and see which one you 
better.  Personally, I think this variation actually sounds kind of cool.  I'm not sure 
one they actually do in the song though.

e|-------------------------------------------------------------------------|
B|-------------------------------------------------------------------------|
G|---------2-3-2--------------2-3-2--------------2-3-2------------2-3-2----|
D|---------2-3-2--------------2-3-2--------------2-3-2------------2-3-2----|
A|-2-2----------------2-2----------------2-2--------------2-2--------------|
E|-0-0-3^--------3^---0-0-3^--------3^---0-0-3^--------3^-0-0-3^--------3^-|
-|                                                                         |
e|-------------------------------------------------------------------------|
B|-12-12-12-12-/15-15-\12-12-12-12/17-17-17-\12-12-12-/\/-15--\/-17~~~~~~~-|
G|-------------------------------------------------------------------------|
D|-------------------------------------------------------------------------|
A|-------------------------------------------------------------------------|
E|-------------------------------------------------------------------------|
*For guitar 2, each note in this part has small whammy bar dives with it.  Listen to the 
to see what I mean.

last chorus:
e|-0----------0----------0------------------------------------------0000000|
B|-0------0---0------0---0------0-----------------------------------0000000|
G|-1------0---1------0---1------0-----------2--3--2--0---1----1-----1111111|
D|-0------0---0------0---0------0--2--------2--3--2--0---0----0-----0000000|
A|-2----------2----------2---------2---------------------2----2-----2222222|
E|-0----------0----------0---------0---3^----------------0----0-----0000000|
-|                                                                         |
e|-------------------------------------------------------------------------|
B|-(17)--------------------------------------------------------------------|
G|-------------------------------------------------------------------------|
D|------------2----------2---------2---------------------2----2-----2------|
A|------------2----------2---------2---------------------2----2-----2--5555|
E|--------3^--0------3^--0------3^-0-----------------3^--0----0-----0--0000|

************************************

| /   slide up
| \   slide down
| h   hammer-on
| p   pull-off
| ~   vibrato
| +   harmonic
| x   Mute note
| b   Bend
| pb  Pre-bend
| br  Bend release
| pbr Pre-bend release
| brb Bend release bend
| r   Release bend

************************************
comments
We did not receive enough feedback on this tab! Please rate:
print report bad tab
1 2 3 4 5
I want to post or [tab]
guest
You may want to rate the tab now too:
select rating
Please do not post tabs as comments. Select "correction" instead!