Oops, an error
Loading. Please wait.

Mexican Hairless Tab

1,865 views 6 this week
no commentswrite comment
1 2 3 4 5
please rate
add to favorites
launch autoscroll
font size
0
reset
how to read this tab
guitar tuner
Autoscroll
slow
fast
+/-
esc
set tempo
stop
Help us to improve Ultimate-Guitar.com Take our survey!
×
Author
Toadies - Mexican Hairless
tabbed by: Shawn Klapproth
email: shawnzy4@hotmail.com
tuning: EADGBe


Guitar 1 Intro

----
----
----
-9--
-11-
-9-- Repeat for a bit, then...

-------------------|
-------------------|
-----------9-------|
-9----10---11---8--|
-11---12---9----10-|
-9----10--------8--|


Guitar 2 Intro
--------13-------------14-----12---------12----|
--13/14---14---14-14/15--15-11--11--11-13---13-|
-----------------------------------------------|
-----------------------------------------------|
-----------------------------------------------|
-----------------------------------------------|


----13-------------14------12--12------12--12--|
-14---14---14-14/15---15-11--11---11-13--13----|
-----------------------------------------------|
-----------------------------------------------|
-----------------------------------------------|
-----------------------------------------------|


---xx---xx---xx---xx---------xx-----|
---xx---xx---xx---xx---------xx-----|
---xx-8-xx---xx-7-xx---------xx-----|
-6-xx-8-xx-9-xx-7-xx-7-7-7-7-xx-2-2-|
-6-xx-6-xx-9-xx-5-xx-7-7-7-7-xx-2-2-|
-4-xx---xx-7-xx---xx-5-5-5-5-xx-0-0-|


---xx---xx---xx---xx---------xx-----|
---xx---xx---xx---xx---------xx-----|
---xx-8-xx---xx-7-xx---------xx-----|
-6-xx-8-xx-9-xx-7-xx-7-7-7-7-xx-8-9-|
-6-xx-6-xx-9-xx-5-xx-7-7-7-7-xx-8-9-|
-4-xx---xx-7-xx---xx-5-5-5-5-xx-6-7-|

-7--
-7--
-6--
-7--
-9--
-7--

------------------------------------|
------------------------------------|
-13---11--6---9---13---11--6---9----|
-x----x---x---x---x----x---x---x----|
-11---9---4---7---11---9---4---7----|
------------------------------------|


------------------------------|
------------------------------|
-13---14---16---18---19---21--|
-x----x----x----x----x----x---|
-11---12---14---16---17---19--|
------------------------------|

--------13-------------14-----12---------12----|
--13/14---14---14-14/15--15-11--11--11-13---13-|
-----------------------------------------------|
-----------------------------------------------|
-----------------------------------------------|
-----------------------------------------------|


----13-------------14------12--12------12--12--|
-14---14---14-14/15---15-11--11---11-13--13----|
-----------------------------------------------|
-----------------------------------------------|
-----------------------------------------------|
-----------------------------------------------|

---xx---xx---xx---xx---------xx-----|
---xx---xx---xx---xx---------xx-----|
---xx-8-xx---xx-7-xx---------xx-----|
-6-xx-8-xx-9-xx-7-xx-7-7-7-7-xx-2-2-|
-6-xx-6-xx-9-xx-5-xx-7-7-7-7-xx-2-2-|
-4-xx---xx-7-xx---xx-5-5-5-5-xx-0-0-|


---xx---xx---xx---xx---------xx-----|
---xx---xx---xx---xx---------xx-----|
---xx-8-xx---xx-7-xx---------xx-----|
-6-xx-8-xx-9-xx-7-xx-7-7-7-7-xx-8-9-|
-6-xx-6-xx-9-xx-5-xx-7-7-7-7-xx-8-9-|
-4-xx---xx-7-xx---xx-5-5-5-5-xx-6-7-|


---xx---xx---xx---xx-R|--------------|
---xx---xx---xx---xx-E|--------------|
---xx-8-xx---xx-7-xx-P|--------------|
-6-xx-8-xx-9-xx-7-xx-E|--7-7-7-7-8-9-|
-6-xx-6-xx-9-xx-5-xx-A|--7-7-7-7-8-9-|
-4-xx---xx-7-xx---xx-T|--5-5-5-5-6-7-|
Suggest correction
What's this?
You can suggest a correction to this tab. Community and Mods will review your correction and vote to approve or reject it.
comments
We did not receive enough feedback on this tab! Please rate:
print report bad tab
1 2 3 4 5
guest
You may want to rate the tab now too:
select rating
Please do not post tabs as comments. Select "correction" instead!