Oops, an error
Loading. Please wait.

Mine Bass Tab

145 views 1 this week
2 commentsread comments
1 2 3 4 5
3 more votes to show rating
add to favorites
launch autoscroll
font size
0
reset
guitar tuner
Autoscroll
slow
fast
+/-
esc
set tempo
stop
Help us to improve Ultimate-Guitar.com Take our survey!
×
Author
-------------------------------------------------------------------------------
			     Mine - Toadies
-------------------------------------------------------------------------------

Tabbed By : Corey
 

Tuning:EADG

   intro,verse (0:00)
G|----------------------------------------------------------------|
D|---------22-----------22------------------22-------22--66-2-----|3x
A|--4--22----42--4--22----42(2)---2--4--22----42--4----------4----|
E|-----------------------------024--------------------------------|

   chorus (0:40)
G|----------------------|
D|------6-6-------------|4x
A|--4~------/11-11-11-9-|
E|----------------------|

   verse  (0:54)
G|----------------------------------------------------------------|
D|---------22-----------22------------------22-------22--66-2-----|3x
A|--4--22----42--4--22----42(2)---2--4--22----42--4----------4----|
E|-----------------------------024--------------------------------|


 chorus (1:21)
G|----------------------|
D|------6-6-------------|12x
A|--4~------/11-11-11-9-|
E|----------------------|


verse  (2:00)
G|----------------------------------------------------------------|
D|---------22-----------22------------------22-------22--66-2-----|1x
A|--4--22----42--4--22----42(2)---2--4--22----42--4----------4----|
E|-----------------------------024--------------------------------|

~ hold note
(#) Play right before the note after it
/ slide up
\ slide down
=========================================================
Suggest correction
Give kudos to tab author, rate the tab!
1 2 3 4 5
comments
print report bad tab
2 comments total.
0 reply
astrocreep71 154 Jul 17, 2007 01:18 AM

What album is this on?

0 reply
cman500 219 Jul 17, 2007 04:50 PM

unknown album

guest
You may want to rate the tab now too:
select rating
Wanna post a correction for this tab? Suggest correction