Oops, an error
Loading. Please wait.

Mister Love Tab

version 1
version 1

Whole song

Interactive

2,112 views 3 this week
no commentswrite comment
1 2 3 4 5
please rate
add to favorites
launch autoscroll
font size
0
reset
how to read this tab
guitar tuner
Autoscroll
slow
fast
+/-
esc
set tempo
stop
Help us to improve Ultimate-Guitar.com Take our survey!
×
Author
Difficulty
intermediate
-------------------------------------------------------------------------------
                             MISTER LOVE - The Toadies
-------------------------------------------------------------------------------
Tabbed by: ironmanben
Email: bentrooper@gmail.com

Tuning: e B G D A E


guitar 1 - Todd Lewis - rhythm
guitar 2 - Darrel Herbert - lead


Intro:
(guitar 2 only:)
e|----------------------------------------------------------------|
B|----------------------------------------------------------------|
G|----------------------------------------------------------------|
D|-4-------(\2)-------(/6)-------(\4)-------(\2)-------(/5)-------|
A|-4-------(\2)-------(/6)-------(\4)-------(\2)-------(/5)-------|
E|-2-------(p0)-------(/4)-------(\2)-------(p0)-------(/3)-------|


Main Riff:
(guitar 1:)
e|--------------------------------------------------|
B|--------------------------------------------------|
G|--------------------------------------------------|
D|-4-4-4-442-2-2-226-6-6-664-4-4-442-2-2-225-5-5-55-|
A|-4-4-4-442-2-2-226-6-6-664-4-4-442-2-2-225-5-5-55-|
E|-2-2-2-220-0-0-004-4-4-442-2-2-220-0-0-003-3-3-33-|
-| (guitar 2:)                                      |
e|-2-2-2-2-0-0-0-0-4-4-4-4-2-2-2-2-0-0-0-0-3-3-3-3--|
B|-2-2-2-2-0-0-0-0-4-4-4-4-2-2-2-2-0-0-0-0-3-3-3-3--|
G|-3-3-3-3-1-1-1-1-5-5-5-5-3-3-3-3-1-1-1-1-4-4-4-4--|
D|-4-4-4-4-2-2-2-2-6-6-6-6-4-4-4-4-2-2-2-2-5-5-5-5--|
A|-4-4-4-4-2-2-2-2-6-6-6-6-4-4-4-4-2-2-2-2-5-5-5-5--|
E|-2-2-2-2-0-0-0-0-4-4-4-4-2-2-2-2-0-0-0-0-3-3-3-3--|



Main Riff Outro:
e|--------------------------|---------------------------------------------|
B|--------------------------|---------------------------------------------|
G|--------------------------|---------------------------------------------|
D|-4-4-4-442-2-2-226-6-6-66-|-------------------------------------8-8-8-8-|
A|-4-4-4-442-2-2-226-6-6-66-|-44444444-55555555-66666666-77777777-8-8-8-8-|
E|-2-2-2-220-0-0-004-4-4-44-|-22222222-33333333-44444444-55555555-6-6-6-6-|
-|                          | xxxxxxxx xxxxxxxx xxxxxxxx xxxxxxxx         |
e|-2-2-2-2-0-0-0-0-4-4-4-4--|---------------------------------------------|
B|-2-2-2-2-0-0-0-0-4-4-4-4--|-------------------------------------3-3-3-3-|
G|-3-3-3-3-1-1-1-1-5-5-5-5--|-------------------------------------3-3-3-3-|
D|-4-4-4-4-2-2-2-2-6-6-6-6--|-------------------------------------3-3-3-3-|
A|-4-4-4-4-2-2-2-2-6-6-6-6--|---------------------------------------------|
E|-2-2-2-2-0-0-0-0-4-4-4-4--|-22222222-33333333-44444444-55555555---------|
                              xxxxxxxx xxxxxxxx xxxxxxxx xxxxxxxx

Riff 2:
e|---------------------------------|
B|-------------7-------------------|
G|-------------7-------------------|
D|-----x-x-x---7---x-x-x---x---x-x-|
A|-9---x-x-x---x---x-x-x---x---x-x-|
E|-7---x-x-x---7---x-x-x---x---x-x-|
-|                                 |
e|---------------------------------|
B|---------------------------------|
G|---------------------------------|
D|---------------------------------|
A|---------------------------------|
E|-7-7-7-7-7-7-7-7-7-7-7-7-7-7-7-7-|
   ^NOTE: Do not press down on the 7th fret here, 
just lightly touch it with your finger, 
using as little pressure as you can, 
to get the sound Darrel Herbert gets in the song.


Riff 3:
e|---------------------------------|
B|-------------7-------------------|
G|-------------7-------------------|
D|-----x-x-x---7---x-x-x-----------|
A|-9---x-x-x---x---x-x-x---9\------|
E|-7---x-x-x---7---x-x-x---7\------|
-|                                 |
e|---------------------------------|
B|---------------------------------|
G|---------------------------------|
D|---------------------------------|
A|---------------------------------|
E|-7-7-7-7-7-7-7-7-7-7-7-7-7-7-7-7-|
   ^NOTE: See the note for Riff 2.


Main Riff 2:
(guitar 1:)
e|--------------------------------------------------|
B|--------------------------------------------------|
G|--------------------------------------------------|
D|-4-4-4-442-2-2-226-6-6-664-4-4-442-2-2-225---5----|
A|-4-4-4-442-2-2-226-6-6-664-4-4-442-2-2-225---5----|
E|-2-2-2-220-0-0-004-4-4-442-2-2-220-0-0-003---3----|
-| (guitar 2:)                                      |
e|-2-2-2-2-0-0-0-0-4-4-4-4-2-2-2-2-0-0-0-0-3---3----|
B|-2-2-2-2-0-0-0-0-4-4-4-4-2-2-2-2-0-0-0-0-3---3----|
G|-3-3-3-3-1-1-1-1-5-5-5-5-3-3-3-3-1-1-1-1-4---4----|
D|-4-4-4-4-2-2-2-2-6-6-6-6-4-4-4-4-2-2-2-2-5---5----|
A|-4-4-4-4-2-2-2-2-6-6-6-6-4-4-4-4-2-2-2-2-5---5----|
E|-2-2-2-2-0-0-0-0-4-4-4-4-2-2-2-2-0-0-0-0-3---3----|


Bridge:
e|-----------------------------------------------------------------------|
B|-----------------------------------------------------------------------|
G|-----------------------------------------------------------------------|
D|-----------------------------------------------------------------------|
A|-----------------------------------------------------------------------|
E|-2/////////////////20-0--------------------------------------------(0)-|
-|                                                                       |
e|-----------------------------------------------------------------------|
B|-----------------------------------------------------------------------|
G|-----------------------------------------------------------------------|
D|-----------------------------------------------------------------------|
A|-4////////////15-------------------------------------------------------|
E|---------------------0~~~~~~~~~~~~~~~~~~~~~~~~~~~~~~~~~~~~~~~~~~~~(0~)-|
                       ^Feel free to go nuts with the whammy bar.


Bridge Riff 1:
(guitar 1 only:)
e|----------------------------------------------------------------------|
B|-7------------8-------------5-----------3----\\-----------------------|
G|-9^(11)-------10^(12)-------7^(9)-------5^(7)\\-----------------------|
D|----------------------------------------------------------------------|
A|-^------------^-------------^-----------------------------------------|
E|-^------------^-------------^-----------------------------------------|
   ^            ^             ^
   - Strum these three x8 FAST -


Bridge Riff 2:
e|----------------------------------------|
B|-7------------8-------------5-----------|
G|-9^(11)-------10^(12)-------7^(9)-------|
D|----------------------------------------|
A|----------------------------------------|
E|----------------------------------------|
   ^ Strum each note x8 FAST


Bridge Riff 3:)
e|--------------------------|
B|--------------------------|
G|--------------------------|
D|-4-4-4-445-5-5-552-2-2-22-|
A|-4-4-4-445-5-5-552-2-2-22-|
E|-2-2-2-223-3-3-330-0-0-00-|
-|                          |
e|-2-2-2-2-3-3-3-3-0-0-0-0--|
B|-2-2-2-2-3-3-3-3-0-0-0-0--|
G|-3-3-3-3-4-4-4-4-1-1-1-1--|
D|-4-4-4-4-5-5-5-5-2-2-2-2--|
A|-4-4-4-4-5-5-5-5-2-2-2-2--|
E|-2-2-2-2-3-3-3-3-0-0-0-0--|


Main Riff Outro 2:
e|---------------------------------------------|
B|---------------------------------------------|
G|---------------------------------------------|
D|-------------------------------------8-8-8-8-|
A|-44444444-55555555-66666666-77777777-8-8-8-8-|
E|-22222222-33333333-44444444-55555555-6-6-6-6-|
-| xxxxxxxx xxxxxxxx xxxxxxxx xxxxxxxx         |
e|---------------------------------------------|
B|-------------------------------------3-3-3-3-|
G|-------------------------------------3-3-3-3-|
D|-------------------------------------3-3-3-3-|
A|---------------------------------------------|
E|-22222222-33333333-44444444-55555555---------|
   xxxxxxxx xxxxxxxx xxxxxxxx xxxxxxxx


End:
e|------------------|
B|------------------|
G|------------------|
D|-----x-x-x-x-9\---|
A|-9---x-x-x-x-9\---|
E|-7---x-x-x-x-7\---|
-|                  |
e|------------------|
B|------------------|
G|------------------|
D|------------------|
A|-------------9\---|
E|-7---7-7-7-7-7\---|
NOTE: See note for Riff 2.



ORDER:
intro x2
main riff 
main riff outro
riff 2 x7
riff 3 x1
main riff x3
main riff outro
riff 2 x7
riff 3 x1
main riff 
main riff 2
bridge
bridge riff 1 x2 (guitar 2 does more whammy bar)
bridge riff 2 x4 (guitar 2 does EVEN MORE whammy bar)
bridge riff 3 x3
main riff outro 2
riff 2 x7
riff 3 x1 
intro x2
main riff 
main riff outro
end 


************************************

| /   slide up
| \   slide down
| h   hammer-on
| p   pull-off
| ~   vibrato
| +   harmonic
| x   Mute note
| b   Bend
| pb  Pre-bend
| br  Bend release
| pbr Pre-bend release
| brb Bend release bend

************************************
Suggest correction
What's this?
You can suggest a correction to this tab. Community and Mods will review your correction and vote to approve or reject it.
comments
We did not receive enough feedback on this tab! Please rate:
print report bad tab
1 2 3 4 5
guest
You may want to rate the tab now too:
select rating
Please do not post tabs as comments. Select "correction" instead!