Oops, an error
Loading. Please wait.

Plane Crash Bass Tab

328 views 1 this week
no commentswrite comment
1 2 3 4 5
3 more votes to show rating
add to favorites
launch autoscroll
font size
0
reset
guitar tuner
Autoscroll
slow
fast
+/-
esc
set tempo
stop
Help us to improve Ultimate-Guitar.com Take our survey!
×
Author
----------------------------------------------------------------------------
			  Plane Crash - Toadies
----------------------------------------------------------------------------

Bass comes in around 0:06

 G|--------------------------------------|
 D|--------------------------------------| x4
 A|-8-8-8-8/11-11-11-11--8-8-8-8\1-1-1-1-|
 E|--------------------------------------|

 G|-------------------|
 D|-------------------| x8
 A|-1-1-1-------------|
 E|-------4-4-4-1-1-1-|

You gotta do the 4's pretty fast do make it sound right
 G|-----------|
 D|-----------|
 A|-4(32x)/8\-|
 E|-----------|

 G|--------------------------------------|
 D|--------------------------------------| x2
 A|-8-8-8-8/11-11-11-11--8-8-8-8\1-1-1-1-|
 E|--------------------------------------|

 G|-------------------|
 D|-------------------| x8
 A|-1-1-1-------------|
 E|-------4-4-4-1-1-1-|

 G|-----------|
 D|-----------|
 A|-4(32x)/8\-|
 E|-----------|

Bass rests from 1:18 to 1:24

 G|------------------------------------------|
 D|------------------------------------------| x4
 A|-8-8-8-8/13-13-13-13--8-8-8-8/11-11-11-11-|
 E|------------------------------------------|

 G|---------------|
 D|---------9-9-9-|
 A|-11(12x)-------|
 E|---------------|

 G|-------------------|
 D|-------------------| x8
 A|-1-1-1-------------|
 E|-------4-4-4-1-1-1-|

 G|-----------|
 D|-----------|
 A|-4(48x)/8\-|
 E|-----------|


| /  slide up
| \  slide down
============================================================================
Suggest correction
Give kudos to tab author, rate the tab!
1 2 3 4 5
comments
print report bad tab
guest
You may want to rate the tab now too:
select rating
Wanna post a correction for this tab? Suggest correction