Oops, an error
Loading. Please wait.

Possum Kingdom Bass Tab

version 3
version 3

Whole song

Interactive

42,984 views 111 this week
7 commentsread comments
1 2 3 4 5
x 23
add to favorites
launch autoscroll
font size
0
reset
guitar tuner
Autoscroll
slow
fast
+/-
esc
set tempo
stop
Help us to improve Ultimate-Guitar.com Take our survey!
×
Author
Difficulty
intermediate
Possum Kingdom by the Toadies
Standard Tuning
Tabbed by Pat Murphy

(Come in at about 0:25 at the end of the first verse)                               
G|---------|-------------------------------------------------------------| (x2)
D|---------|-------------------------------------------------------------|
A|---------|-------------------------------------------------------------|
E|-5-5-5-5-|-0-0-----0-0-----0-0-----5-5-0-0-----0-0-----0-0-----5-5-5-5-|
                                                
[Verse 1]
G|-------------------------------------------------------------|
D|-------------------------------------------------------------|
A|-------------------------------------------------------------| (x2)
E|-0-0-----0-0-----0-0-----5-5-0-0-----0-0-----0-0-----5-5-5-5-|

G|-------------------------------------------------------------|
D|-------------------------------------------------------------|
A|-------------------------------------------------------------| (x3)
E|-0-0-3-4-0-0-3-4-0-0-3-4-5-5-0-0-3-4-0-0-3-4-0-0-3-4-5-5-5-5-|

[Chorus 1]
G|-------------------------------------------------|
D|---------------------2-2-------------------------|
A|-------------------------3-3---------------------|
E|-2-2-2-2-5-5-5-5-0-0---------4-4-5-5-5-5-2-2-2-2-|

[Verse 2]
G|-------------------------------------------------------------|
D|-------------------------------------------------------------|
A|-------------------------------------------------------------| (x2)
E|-0-0-----0-0-----0-0-----5-5-0-0-----0-0-----0-0-----5-5-5-5-|

G|-------------------------------------------------------------|
D|-------------------------------------------------------------|
A|-------------------------------------------------------------| (x2)
E|-0-0-3-4-0-0-3-4-0-0-3-4-5-5-0-0-3-4-0-0-3-4-0-0-3-4-5-5-5-5-|

[Chorus 2]
G|-------------------------------------------------|
D|---------------------2-2-------------------------|
A|-------------------------3-3---------------------|
E|-2-2-2-2-5-5-5-5-0-0---------4-4-5-5-5-5-2-2-2-2-|

[Bridge]
G|-------------------------------------------------------------------------|
D|---------------------------------------------------------4-4-4-4---------|
A|-------------------------------------------------4-4-4-4---------3-3-3-3-|
E|-0-0-0-0-0-0-0-0-4-4-4-4-4-4-4-4-5-5-5-5-4-4-4-4-------------------------|

G|----------------------------------------|      |-----------------|
D|----------------------------------------|      |-----------------|
A|-4-4-4-4-5-5-5-5-3-3-3-3-4-4-4-4-2---2--| (x3) |-----------------|
E|----------------------------------------|      |-5-5-5-5-2-2-2-2-|

(3:28)
 (This starts after a long pause with only drums and guitar feedback)
G|-------------------------------------------------------------|
D|-------------------------------------------------------------|
A|-------------------------------------------------------------| (x8)
E|-0-0-3-4-0-0-3-4-0-0-3-4-5-5-0-0-3-4-0-0-3-4-0-0-3-4-5-5-5-5-|

[Last Chorus]
G|-------------------------------------------------|
D|---------------------2-2-------------------------|
A|-------------------------3-3---------------------|
E|-2-2-2-2-5-5-5-5-0-0---------4-4-5-5-5-5-2-2-2-2-|

[Outro]
(Ritardando)(gradually slow down)
G|---------|
D|---------|
A|---------|
E|-0-(x35)-|
Suggest correction
comments
print report bad tab
7 comments total. Showing first comments.
0 reply
tizthebassist 10 May 21, 2007 10:24 PM

nicely done!! Sounds perfect to me.

0 reply
longneckdude 10 Sep 04, 2007 03:01 PM

awesome! best bass tab

0 reply
A+_Tabs 10 Sep 07, 2008 06:34 PM

this tab is awsome, everything is perfect

guest
You may want to rate the tab now too:
select rating
Wanna post a correction for this tab? Suggest correction