Oops, an error
Loading. Please wait.

Possum Kingdom Tab

version 3
version 3

Whole song

Interactive

11,188 views 1 this week
no commentswrite comment
1 2 3 4 5
x 5
add to favorites
launch autoscroll
font size
0
reset
how to read this tab
guitar tuner
Autoscroll
slow
fast
+/-
esc
set tempo
stop
Help us to improve Ultimate-Guitar.com Take our survey!
×
Possum Kingdom
Toadies

Verse

E---0--0--x--x-x--0--0--x--x-x--0--0--x---------------|
B---0--0--x--x-x--0--0--x--x-x--0--0--x----2--3p2-----|
G---1--1--x--x-x--1--1--x--x-x--1--1--x----2--2-------|
D---0--0--x--x-x--0--0--x--x-x--0--0--x----2--2-------|
A---2--2--x--x-x--2--2--x--x-x--2--2--x----0--0-------|
E---0--0--x--x-x--0--0--x--x-x--0--0--x----0--0-------|

E---0--0--x--x-x--0--0--x--x-x--0--0--x-----------------|
B---0--0--x--x-x--0--0--x--x-x--0--0--x----2--3p2--3p2--|
G---1--1--x--x-x--1--1--x--x-x--1--1--x----2--2----2----|
D---0--0--x--x-x--0--0--x--x-x--0--0--x----2--2----2----|
A---2--2--x--x-x--2--2--x--x-x--2--2--x----0--0----0----|
E---0--0--x--x-x--0--0--x--x-x--0--0--x----0--0----0----|

Main riff

E-----------------------------------------------------------|
B-----------------------------------------------------------|
G---------9---7----------------------9---7------------------|
D-------------------6-(whammy)---------------7---6----------|(whammy)
A----9-------------------------9--9-------------------------|
E-----------------------------------------------------------|


Chorus

E---------------------------------------|
B---------------------------------------|
G--------------1111--5555---------------|
D--4444--7777--0000--5555--7777--4444---|
A--4444--7777--2222--3333--7777--4444---|
E--2222--5555--------------5555--2222---|


Bridge

E-------5-------4-------0-------1-------4-------0-------5--|
B-------5-------4-------0-------1-------4-------0-------6--|
G--6-6--6--5-5--5--4-4--4--1-1--1--5-5--5--4-4--4--7-7--7--|
D--7-7--7--4-4--4--3-3--3--3-3--3--4-4--4--3-3--3--7-7--7--|
A--7-7--7--6-6--6--4-4--4--3-3--3--6-6--6--4-4--4--5-5--5--|
E--5-5--5--4-4--4--x-x--x--1-1--1--4-4--4--x-x--x--5-5--5--|
   P.M.    P.M.    P.M.    P.M.    P.M.    P.M.    P.M.
Suggest correction
comments
print report bad tab
guest
You may want to rate the tab now too:
select rating
Wanna post a correction for this tab? Suggest correction