Oops, an error
Loading. Please wait.

Possum Kingdom Bass Tab

version 4
version 4

Whole song

Interactive

1,090 views 3 this week
no commentswrite comment
1 2 3 4 5
please rate
add to favorites
launch autoscroll
font size
0
reset
guitar tuner
Autoscroll
slow
fast
+/-
esc
set tempo
stop
Help us to improve Ultimate-Guitar.com Take our survey!
×
Author
Difficulty
intermediate
Intro/Verse

G|-----|------------------------------------------------------------------------|
D|-----|------------------------------------------------------------------------|
A|-----|------------------------------------------------------------------------|
E|-----|--0-0--0-0--0-0--55---0-0--0-0--0-0--5-5-5-5----------------------------|

X4

Bridge

G|---------------------------------------------------------------------------|
D|---------------------------------------------------------------------------|
A|---------------------------------------------------------------------------|
E|0-0-3-4----0-0-3-4----0-0-3-4--5-5--0-0-3-4----0-0-3-4----0-0-3-4--5-5-5-5-|

X 4

Chorus

G|---------------------------------------------------------------------------|
D|---------------------------------------------------------------------------|
A|---------------------------------3-3--------0-0-0-0------------------------|
E|2-2-2-2----5-5-5-5----0-0-0-0--------4-4---------------2-2-2-2-------------|

Middle

G|---------------------------------------------------------------------------|
D|---------------------------------------------------------------------------|
A|---------------------------------------------------------------------------|
E|0-0-0-0----0-0-0-0----4-4-4-4----4-4-4-4-----------------------------------|

  Give it up to me..........
G|---------------------------------------------------------------------------|
D|-----------------------------4-4-4-4---------------------------------------|
A|--------------------4-4-4-4-----------3-3-3-3--4-4-4-4--5-5-5-5--3-3-3-3---|
E|--5-5-5-5--4-4-4-4---------------------------------------------------------|

G|---------------------------------------------------------------------------|
D|---------------------------------------------------------------------------|
A|--4-4-4-4--2-2-2-2---------------------------------------------------------|
E|--------------------5-5-5-5--2-2-2-2---------------------------------------|
|

|

Break

G|---------------------------------------------------------------------------|
D|---------------------------------------------------------------------------|
A|---------------------------------------------------------------------------|
E|0-0-3-4----0-0-3-4----0-0-3-4--5-5--0-0-3-4----0-0-3-4----0-0-3-4--5-5-5-5-|
Suggest correction
What's this?
You can suggest a correction to this tab. Community and Mods will review your correction and vote to approve or reject it.
comments
We did not receive enough feedback on this tab! Please rate:
print report bad tab
1 2 3 4 5
guest
You may want to rate the tab now too:
select rating
Please do not post tabs as comments. Select "correction" instead!